» » »

From Here To The Moon And Back Tabs (ver.1)

Artists:  A B C D E F G H I J K L M N O P Q R S T U V W X Y Z # 

From Here To The Moon And Back Tabs (ver.1)

Dolly Parton
Rating:
0/5 (0 votes)

Hard to play? Try these video lessons and learn fast.
                Took me hours to do! Not for beginners, but fun to play, transcribed from the song from 
the movie 'Joyful Noise'.
-------------------------------------------------------------------------------
-------------------------------------------------------------------------------

Tuning: Drop D


Intro
e|-----------0------------------0------|
B|-------3-----3-----------3------3----|  x2
G|--------2------2-------0---0------0--|
D|---2/4-------------0-----------------|
A|-------------------0h2---------------|
D|-0-----------------------------------|


Verse 1
e|-----------0--------------------5------|
B|-------3-----3-------------3-----------|
G|--------2------2---------0---0---------|
D|---2/4---------------0-----------------|
A|---------------------0h2---------------|
D|-0-------------------------------------|
I could hold out my arms, say I love you this much

e|----------------------------------------------------0--------|
B|-3----3--------2-----2-------3-----3------------3-----3------|
G|----0---0----------2---2---------0---0------------2-----2----|
D|--2--------------2-------------2------------2/4--------------|
A|-0-------------0-------------0-------------------------------|
D|------------------------------------------0------------------|
I could tell you how long, I would long for your touch

e|-2----------2-----2----2-2-------------------------|
B|-3-3---3----2-2--------1---1------------3----0-----|
G|-----2----------2-------------------0------2-------|
D|----------------------------------0---5------------|
A|---------------------------------------------------|
D|-0----------0----------0--------5------------5-----|
How much and how far, would I go to prove

e|-----0------------0--------------|
B|-------3---------------2-3-4-5---|
G|---0-----2----1-1------------6---|
D|-2-------------------------------|
A|--------------2--------0-2-3-4---|
D|-2------------2------------------|
The depth and the breadth, of my love for you


Chorus
e|---------------------------5-------|
B|-----3----2---2----3---------3-----|
G|-----2----2-2----------0-----------|
D|---0-----------------0---0---------|
A|----------0------------------------|
D|-0-----------------5---------------|

e|----3----------------3--------0---------|
B|-3------8-0-----3-----------3-----3-----|
G|-2-0----6--6----0--0--------2------2----|
D|--------------------------0-----0-------|
A|-0------0-------0-----------------------|
D|-------------------------0--------------|
Who else in this world, would love you like that?

e|-2-2--------2-2---------2-2--------------------------|
B|-3---3------2---2-------1---1--------------3---------|
G|-------2----------2-----------2------0---0---0-------|
D|---------------------------------------0-------0-----|
A|-----------------------------------------------------|
D|-0----------0-----------0----------5-----------------|
Love everlasting, I promise you that

e|-2-0-2---------0----------------------10p9-5-3-|
B|-3-----3-------2----2-----------3--------------|
G|-2------2------2--2-------0---0---0------------|
D|----------------2-----------0-------0----------|
A|---------------0-------------------------------|
D|-0-----------------------5---------------------|

e|-2-0-2---------0-----------------------|
B|-3-----3-------2----2---------3---3----|
G|-2------2------2--2-------------2------|
D|----------------2---------2/4----------|
A|---------------0-----------------------|
D|-0-----------------------0-------------|


Verse 2
e|-----------0--------------------5------|
B|-------3-----3-------------3-----------|
G|--------2------2---------0---0---------|
D|---2/4---------------0-----------------|
A|---------------------0h2---------------|
D|-0-------------------------------------|
I want you to know, you can always depend

e|----------------------------------------------------0--------|
B|-3----3--------2-----2-------3-----3------------3-----3------|
G|----0---0----------2---2---------0---0------------2-----2----|
D|--2--------------2-------------2------------2/4--------------|
A|-0-------------0-------------0-------------------------------|
D|------------------------------------------0------------------|
On promises made, and love without end

e|-2----------2-----2----2-2-------------------------|
B|-3-3---3----2-2--------1---1------------3----0-----|
G|-----2----------2-------------------0------2-------|
D|----------------------------------0---5------------|
A|---------------------------------------------------|
D|-0----------0----------0--------5------------5-----|
No need to wonder, how faithful I'll be

e|-----0------------0--------------|
B|-------3---------------2-3-4-5---|
G|---0-----2----1-1------------6---|
D|-2-------------------------------|
A|--------------2--------0-2-3-4---|
D|-2------------2------------------|
Now and on into, eternity


Chorus 2
e|---------------------------5-------|
B|-----3----2---2----3---------3-----|
G|-----2----2-2----------0-----------|
D|---0-----------------0---0---------|
A|----------0------------------------|
D|-0-----------------5---------------|

e|----3----------------3--------0---------|
B|-3------8-0-----3-----------3-----3-----|
G|-2-0----6--6----0--0--------2------2----|
D|--------------------------0-----0-------|
A|-0------0-------0-----------------------|
D|-------------------------0--------------|
Who else in this world, would love you like that?

e|-2-2--------2-2---------2-2--------------------------|
B|-3---3------2---2-------1---1--------------3---------|
G|-------2----------2-----------2------0---0---0-------|
D|---------------------------------------0-------0-----|
A|-----------------------------------------------------|
D|-0----------0-----------0----------5-----------------|
Love everlasting, I promise you that

e|-2-0-2---------0----------------------10p9-5-3-|
B|-3-----3-------2----2-----------3--------------|
G|-2------2------2--2-------0---0---0------------|
D|----------------2-----------0-------0----------|
A|---------------0-------------------------------|
D|-0-----------------------5---------------------|

e|-2-0-2---------0------------------0-----|
B|-3-----3-------2----2---------3-----3---|
G|-2------2------2--2-------------2-------|
D|----------------2---------2/4-----------|
A|---------------0----------------------0-|
D|-0-----------------------0--------------|


Bridge
e|----0-----------0-----------------0-----0-----------0------|
B|-3----3------2---2---2-2----3-------3-3---3----2--2---2----|
G|-0------0----2-----2---2----4---4----------0---2-2---------|
D|---0-----------0--------------0----------------------------|
A|-----------------------------------------------------------|
D|-5-----------0---------0----5---------5--------0-----------|
I could blow you a kiss from the star where I sat, I could call out your name to echo 
through the vast

e|------0--------2------------5----|
B|-3-----3-----2---2--------3---3--|
G|-4--4----4---2------0---0--------|
D|--2--------------2--0-0----------|
A|-2-----------0---2---------------|
D|--------------------5------------|
Thank heaven for you, and to god tip my hat

e|-2-0-2---------0------------------0----2-----|
B|-3-----3-------2----2---------3-----3----3---|
G|-2------2------2--2-------------2----2-----2-|
D|----------------2---------2/4----------------|
A|---------------0-----------------------------|
D|-0-----------------------0-------------------|

e|---0-----------------0----------------|
B|-3---3-----3-3-----3-0-3-3------------|
G|-4-----4---4--4----2---0---4----------|
D|---------------2---0-2-------5--------|
A|-----------2-------------------5------|
D|-5-------------------2-5--------------|
And I'll spend forever, just proving that fact

e|-2-0-2---------0----------------0---------------0-|
B|-3-----3-------2----2----3--------3------2-0---3--|
G|-2------2------2--2----------0------0----2-0--0---|
D|----------------2--------2-2---2-------------2----|
A|---------------0----------------------------2-----|
D|-0-----------------------2---------------4-2------|

e|-2--5p0h2------0------0--------------0-------------------|
B|-3-------3-----2----2---2--------3-----3-----3-3---3-----|
G|-2-2-----------2--2----------------2-----2---4---4---4p0-|
D|----------------2-------------2/4------------------------|
A|---------------0-----------------------------------------|
D|-0---------------------------0---------------5-----------|

e|---2--------2------------------------------------|
B|-3-3--------3--let ring--------------------------|
G|-2-2--------2------------------------------------|
D|---0--------4------------------------------------|
A|------------0------------------------------------|
D|-2----------0------------------------------------|


************************************

| /   slide up
| \   slide down
| h   hammer-on
| p   pull-off
| ~   vibrato
| +   harmonic
| x   Mute note
| b   Bend
| pb  Pre-bend
| br  Bend release
| pbr Pre-bend release
| brb Bend release bend

************************************
            
Hard to play? Try these video lessons and learn fast. | Correct




comments powered by Disqus
↑ Back to top | Tablatures and chords are parodies/interpretations of the original songs. You may use it for private study, scholarship, research or language learning purposes only