>
 >
Dream Warriors

Dream Warriors Guitar Tabs

Dokken - Dream Warriors chords, tabs, tablatures, lyrics

Guitar lessons | Add/correct | Request | Top 50 tabs Artists:  A B C D E F G H I J K L M N O P Q R S T U V W X Y Z 0-9

Dream Warriors Guitar Tabs – Dokken

CD, Sheet music, Poster

Do you like Dream Warriors? Share with your friends now
Bass TabsTabsTabs v2Tabs v3
Intro (clean tone)
                                                   
|-----------------------------------------------------------------------------|
|-----------------------------------------------------------------------------|
|------10--------9-------------10---------9--9--------5--7-----7--------------|
|------7---------7-------------7----------7--7--------5--5-----5--------------|
|--0---------0-------------0----------0---------0--0------------0--0--0--0----|
|-----------------------------------------------------------------------------|
 
                                                     ( With Distortion )
|-----------------------------------------------------------------------------|
|-----------------------------------------------------------------------------|
|----10-------9---------------------------10-----9---------5----/7--7~--------|
|----7--------7---------------------------7------7---------5----/7--7~--------|
|-0-------0---------0-0-0-0-0-0-0-0-0-0-------0------------3----/5--5~--------|
|--------------------------------------------------/8\-------------------12\--|

RYTHM (distorted tone)
|-----------------------------------------------------------------------------|
|-----------------------------------------------------------------------0-----|
|--4--------4--------------5--------5--------------4--------4--------4--0-----|
|--2--------2--------------3--------3--------------2--------2--------2--0-----|
|--0--0--0--0--0--0--0--0--0--0--0--0--0--0--0--0--0--0--0--0--0--0--0--x-----|
|-----------------------------------------------------------------------3-----|


|----------------------------------------------------------------------------|
|----------------------------------------------------------------------------|
|--5--/7--7\--4--------4-----------5--------5-----------4--------4-----------|
|--5--/7--7\--2--------2-----------3--------3-----------2--------2-----------|
|--3--/5--5\--0--0--0--0--0--0--0--0--0--0--0--0--0--0--0--0--0--0--0--0-12\-|
|----------------------------------------------------------------------------|

              Clean part behind distorted rhythm
|-------------|--------------------------------------------------------------|
|-------------|-------0----------0----------0--------------------------------|
|---5--/7--7--|-----5---5------5---5------5---5------0------0----------------|
|---5--/7--7--|---2----------3----------2----------2------0------2-----------|
|---3--/5--5--|-0----------0----------0----------3------2------3-------------|
|-------------|--------------------------------------------------------------|

         Pre-Chorus
   I'm standing in the night alone etc.
|-----------------------------------------------------------------------------|
|---------------------------------------------------------------------------0-|
|--4--------4--------------5-----7--7--7--7--7-------4---------4--4---------0-|
|--2--------2--------------3-----5--5--5--5--5-------2---------2--2---------0-|
|--0--0--0--0--0--0--0--0--0--0--0--0--0--0--0-------2---------2--2---------x-|
|----------------------------------------------------0---------0--0---------3-|


 
|-----------------------------------------------------------------------------|
|-----0----------------------------0------------6----------5--5----0----------|
|-----0------2---------------------0------------5----------0--0----0----------|
|--3--0------2----------3----------0--------3---3----------3--3----0----------|
|--3--x------0----------3----------x-------------------------------x----------|
|--1--3--------------0--1-------3--3-------------------------------3----------|


  Chorus: We're the Dream Warriors
|----------------------------------------3------------------------0---0-------|
|----------------------------------------3----------------1-----1---1----1----|
|---------5------------------------------0----------------0-------------------|
|---------7--------------3----3----------0----------3-----3-------------------|
|---------0--------------3----3--3--3----x------------------------------------|
|---/8\--------------1---1----1--1--1----3------------------------------------|


|----------------------------------------------0--0---------------------------|
|-----------------------------------3-------1----1--1-------------------------|
|--5--------0------2----------------0-------0------------5--------0---0--0--0-|
|--5--5--5--0------2-------3--------0-------3------------5--5--5--0---0--0--0-|
|--3--3--3--x------0-------3--------x--------------------3--3--3--x---x--x--x-|
|-----------3-----------0--1-----0--3--------------------------3---3--3--3--3-|
  

|-----------------------------------------------------------------------------|
|------------------3------6----5----3--------------------3--------------------|
|--5---------------0------5----0----0--------------------4--------------------|
|--7-------3-------0------3----3----0----------3-----3/--5--------------------|
|--0-------3-------x----------------x----------3-----3/--5------2--2--3--2--0-|
|-------0--1----3--3----------------3----7/----1-----1/--5--------------------|
GUITAR SOLO

   Sweet Revenge etc.
|-----------------------------------------------------------------------------|
|-----------------------------------------------------------------3-----------|
|-----------------------------------------------------------------0-----------|
|-----------------------------------------------------------------0-----------|
|-3------2------3-----3-------2------3----3------2-------3--------x-----------|
|---1--1---1--1---1--1---1--1---1--1---1----3--3----3--3----0--1--3---10\-----|
 


|-----------------------------------------------------------------------------|
|-----------------------------------------------------------------3-----------|
|-----------------------------------------------------------------0-----------|
|-----------------------------------------------------------------0-----------|
|-3------2------3-----3-------2------3----3------2-------3--------x---3~--2~--|
|---1--1---1--1---1--1---1--1---1--1---1----3--3----3--3----0--1--3-----------|





Comments


Popular Dokken tabs & chords
Unchain The Night Bass Tabs
Breaking The Chains Tabs
Burning Like A Flame Tabs
Don't Lie To Me Tabs
In My Dreams Tabs
It's Not Love Tabs
Kiss Of Death Tabs
Kiss Of Death 2 Tabs
Paris Is Burnin Tabs
Without Warning Tabs


Song lyrics



↑ Back to top | Tablatures and chords are parodies/interpretations of the original songs. You may use it for private study, scholarship, research or language learning purposes only
© 2014 AZChords.com Contact us | Privacy policy | DMCA | Add/correct tabs | Request tabs | Top 50 tabs