>
 >
Melodies Haunt You

Melodies Haunt You Guitar Tabs

Dodgy - Melodies Haunt You chords, tabs, tablatures, lyrics

Guitar lessons | Add/correct | Request | Top 50 tabs Artists:  A B C D E F G H I J K L M N O P Q R S T U V W X Y Z 0-9

Melodies Haunt You Guitar Tabs – Dodgy

CD, Sheet music, Poster

Do you like Melodies Haunt You? Share with your friends now
Tabs
-------------------------------------------------------------------------------
-------------------------------------------------------------------------------

Tuning: Standard


e|--------------|-------------|-----------|---------------|
B|-----8--7--5--|-----5-------|-----------|---------------|
G|--------------|-----5-------|-----------|---------------|
D|--0-----------|--7----------|-----------|---------------|
A|--------------|---------2h--|--3/---7---|------------5--|
E|--------------|-------------|-----------|--3---5--7-----|

  
          
e|--------------|-------------|-----------|---------------|
B|-----8--7--5--|-----5-------|-----------|---------------|
G|--------------|-----5-------|-----------|---------------|
D|--------------|--7----------|-----------|---------------|
A|--------------|---------2h--|--3/---7---|------------5--|
E|--------------|-------------|-----------|--3---5--7-----|

*e|-------------------------------------------------------|
*B|-------------------------------------------------------|
*G|----------------------------------------------------9h-|
*D|-------------------------------------------------------|
*A|-------------------------------------------------------|
*E|-------------------------------------------------------|

  
   
---------------|-------------|------------|---------------|
------8--7--5--|-----5-------|------------|---------------|
---------------|-----5-------|------------|---------------|
---------------|--7----------|------------|---------------|
---------------|---------2h--|--3/---7----|------------5--|
---------------|-------------|------------|--3---5--7-----|

*--------------|-------------|------------|---------------|
*----10--------|-------------|---8--------|---------------|
*-11----9-11-9-|---------7h--|-9---7-9-8b9|----7-------9h-|
*--------------|-------------|------------|---------------|
*--------------|-------------|------------|---------------|
*--------------|-------------|------------|---------------|


        
---------------|-------------|------------|---------------|
------8--7--5--|-----5-------|------------|---------------|
---------------|-----5-------|------------|---------------|
---------------|--7----------|------------|---------------|
---------------|---------2h--|--3/---7----|------------5--|
---------------|-------------|------------|--3---5--7-----|

*--------------|-------------|------------|---------------|
*----10--------|-------------|---8--------|---------------|
*-11----9-11-9-|---------7h--|-9---7-9-8b9|----7-------9h-|
*--------------|-------------|------------|---------------|
*--------------|-------------|------------|---------------|
*--------------|-------------|------------|---------------|


            
---------------|-------------|------------|---------------|
------8--7--5--|-----5-------|------------|---------------|
---------------|-----5-------|------------|---------------|
---------------|--7----------|------------|---------------|
---------------|---------2h--|--3/---7----|------------5--|
---------------|-------------|------------|--3---5--7-----|

*--------------|-------------|------------|---------------|
*----10--------|-------------|---8--------|---------------|
*-11----9-11-9-|---------7h--|-9---7-9-8b9|----7-------9h-|
*--------------|-------------|------------|---------------|
*--------------|-------------|------------|---------------|
*--------------|-------------|------------|---------------|


            
---------------|-------------|------------|---------------|
------8--7--5--|-----5-------|------------|---------------|
---------------|-----5-------|------------|---------------|
---------------|--7----------|------------|---------------|
---------------|---------2h--|--3/---7----|------------5--|
---------------|-------------|------------|--3---5--7-----|

*--------------|-------------|------------|---------------|
*----10--------|-------------|----8-------|---------------|
*-11----9-11-9-|---------7h--|--9---7-9-9-|--9---7-----9/-|
*--------------|-------------|------------|---------------|
*--------------|-------------|------------|---------------|
*--------------|-------------|------------|---------------|


     I need to open                  up    my eyes  
--------------|-------------|------------|---------------|
-----8--7--5--|-----5-------|------------|---------------|
--------------|-----5-------|------------|---------------|
--------------|--7----------|------------|---------------|
--------------|---------2h--|--3/---7----|------------5--|
--------------|-------------|------------|--3---5--7-----|

*-------------|-------------|------------|---------------|
*-------------|-------------|------------|---------------|
*-11\---------|-------------|------------|---------------|
*-------------|-------------|------------|---------------|
*-------------|-------------|------------|---------------|
*-------------|-------------|------------|---------------|



   To see whatís in there          deep in side   
--------------|-------------|------------|---------------|
-----8--7--5--|-----5-------|------------|---------------|
--------------|-----5-------|------------|---------------|
--------------|--7----------|------------|---------------|
--------------|---------2h--|--3/---7----|------------5--|
--------------|-------------|------------|--3---5--7-----|


   I got to find out                   for my self
--------------|-------------|------------|---------------|
-----8--7--5--|-----5-------|------------|---------------|
--------------|-----5-------|------------|---------------|
--------------|--7----------|------------|---------------|
--------------|---------2h--|--3/---7----|------------5--|
--------------|-------------|------------|--3---5--7-----|


   Cause there is no-one             thereís no one else         
--------------|-------------|------------|---------------|
-----8--7--5--|-----5-------|------------|---------------|
--------------|-----5-------|------------|---------------|
--------------|--7----------|------------|---------------|
--------------|---------2h--|--3/---7----|------------5--|
--------------|-------------|------------|--3---5--7-----|


   Iíd wait  for a thousand years
  A#  A#     G   G      C   C      F   F
--6---6---|--3---3---|--0---0---|--1---1---|
--6---6---|--3---3---|--1---1---|--1---1---|
--7---7---|--4---4---|--0---0---|--2---2---|
--8---8---|--5---5---|--2---2---|--3---3---|
--8---8---|--5---5---|--3---3---|--3---3---|
--6---6---|--3---3---|--0---0---|--1---1---|


  To see what you would do
--6---6---|--3---3---|--0---0---|--1---1---|
--6---6---|--3---3---|--1---1---|--1---1---|
--7---7---|--4---4---|--0---0---|--2---2---|
--8---8---|--5---5---|--2---2---|--3---3---|
--8---8---|--5---5---|--3---3---|--3---3---|
--6---6---|--3---3---|--0---0---|--1---1---|


    I ainít got a thousand years
--6---6---|--3---3---|--0---0---|--1---1---|
--6---6---|--3---3---|--1---1---|--1---1---|
--7---7---|--4---4---|--0---0---|--2---2---|
--8---8---|--5---5---|--2---2---|--3---3---|
--8---8---|--5---5---|--3---3---|--3---3---|
--6---6---|--3---3---|--0---0---|--1---1---|


  So what you gonna do?
--6---6---|--3---3---|--0---0---|--1---1---|
--6---6---|--3---3---|--1---1---|--1---1---|
--7---7---|--4---4---|--0---0---|--2---2---|
--8---8---|--5---5---|--2---2---|--3---3---|
--8---8---|--5---5---|--3---3---|--3---3---|
--6---6---|--3---3---|--0---0---|--1---1---|

*------------------------------------------|
*------------------------------------------|
*---------------------------------------9h-|
*------------------------------------------|
*------------------------------------------|
*------------------------------------------|

 
   
---------------|-------------|---------------|---------------|
------8--7--5--|-----5-------|---------------|---------------|
---------------|-----5-------|---------------|---------------|
---0-----------|--7----------|---------------|---------------|
---------------|---------2h--|---3/---7------|------------5--|
---------------|-------------|---------------|--3---5--7-----|

*--------------|-------------|---------------|---------------|
*----10--------|-------------|---8-----------|---------------|
*-11----9-11-9-|---------7h--|-9---7-9-7h8h9-|----7-------9h-|
*--------------|-------------|---------------|---------------|
*--------------|-------------|---------------|---------------|
*--------------|-------------|---------------|---------------|



---------------|-------------|---------------|---------------|
------8--7--5--|-----5-------|---------------|---------------|
---------------|-----5-------|---------------|---------------|
---------------|--7----------|---------------|---------------|
---------------|---------2h--|---3/---7------|------------5--|
---------------|-------------|---------------|--3---5--7-----|

*--------------|-------------|---------------|---------------|
*----10--------|-------------|---8-----------|---------------|
*-11----9-11-9-|---------7h--|-9---7-9-----9-|----7-------9/-|
*--------------|-------------|---------------|---------------|
*--------------|-------------|---------------|---------------|
*--------------|-------------|---------------|---------------|



     I need to venture            out much more  
--------------|-------------|------------|---------------|
-----8--7--5--|-----5-------|------------|---------------|
--------------|-----5-------|------------|---------------|
--------------|--7----------|------------|---------------|
--------------|---------2h--|--3/---7----|------------5--|
--------------|-------------|------------|--3---5--7-----|

*-------------|-------------|------------|---------------|
*-------------|-------------|------------|---------------|
*-11\---------|-------------|------------|---------------|
*-------------|-------------|------------|---------------|
*-------------|-------------|------------|---------------|
*-------------|-------------|------------|---------------|



   To get much closer              the need is pure
--------------|-------------|------------|---------------|
-----8--7--5--|-----5-------|------------|---------------|
--------------|-----5-------|------------|---------------|
--------------|--7----------|------------|---------------|
--------------|---------2h--|--3/---7----|------------5--|
--------------|-------------|------------|--3---5--7-----|


   I wonít regret a moment           from this day
--------------|-------------|------------|---------------|
-----8--7--5--|-----5-------|------------|---------------|
--------------|-----5-------|------------|---------------|
--------------|--7----------|------------|---------------|
--------------|---------2h--|--3/---7----|------------5--|
--------------|-------------|------------|--3---5--7-----|


   The key of life is calliní     out to stay         
--------------|-------------|------------|---------------|
-----8--7--5--|-----5-------|------------|---------------|
--------------|-----5-------|------------|---------------|
--------------|--7----------|------------|---------------|
--------------|---------2h--|--3/---7----|------------5--|
--------------|-------------|------------|--3---5--7-----|


   Iíd wait  for a thousand years
  A#  A#     G   G      C   C      F   F
--6---6---|--3---3---|--0---0---|--1---1---|
--6---6---|--3---3---|--1---1---|--1---1---|
--7---7---|--4---4---|--0---0---|--2---2---|
--8---8---|--5---5---|--2---2---|--3---3---|
--8---8---|--5---5---|--3---3---|--3---3---|
--6---6---|--3---3---|--0---0---|--1---1---|


  To see what you would do
--6---6---|--3---3---|--0---0---|--1---1---|
--6---6---|--3---3---|--1---1---|--1---1---|
--7---7---|--4---4---|--0---0---|--2---2---|
--8---8---|--5---5---|--2---2---|--3---3---|
--8---8---|--5---5---|--3---3---|--3---3---|
--6---6---|--3---3---|--0---0---|--1---1---|


    I ainít got a thousand years
--6---6---|--3---3---|--0---0---|--1---1---|
--6---6---|--3---3---|--1---1---|--1---1---|
--7---7---|--4---4---|--0---0---|--2---2---|
--8---8---|--5---5---|--2---2---|--3---3---|
--8---8---|--5---5---|--3---3---|--3---3---|
--6---6---|--3---3---|--0---0---|--1---1---|


  Now what you gonna do?
--6---6---|--3---3---|--0---0---|--1---1---|
--6---6---|--3---3---|--1---1---|--1---1---|
--7---7---|--4---4---|--0---0---|--2---2---|
--8---8---|--5---5---|--2---2---|--3---3---|
--8---8---|--5---5---|--3---3---|--3---3---|
--6---6---|--3---3---|--0---0---|--1---1---|


     Cant find out why     
|--10---|---9---|--7---|--3---2---|--0---|
|--10---|---9---|--7---|--3---2---|--0---|
|--10---|---9---|--7---|--3---2---|--0---|
|--12---|--11---|--9---|--5---4---|--2---|
|--12---|--11---|--9---|--5---4---|--2---|
|--10---|---9---|--7---|--3---2---|--0---|

The way youíre treatin me youíll di Ė i -  i Ė ie
--------------------------|--0---|
--------------------------|--2---|
--------------------------|--2---|
--------------------------|--2---|
--------------------------|--0---|
--------------------------|--0---|

Those melodies haunt you, they make no sound
--------------|--------------|--------------|--------------|
--------------|--------------|--------------|--------------|
--------------|--------------|--------------|--------------|
--------------|--------------|--------------|--------------|
--------------|--------------|--------------|--------------|
--5--5--5--5--|--5--5--5--5--|--5--5--5--5--|--5--5--5--5--|

Those melodies haunt you, when thereís no-one around
--------------|--------------|--------------|--------------|
--------------|--------------|--------------|--------------|
--------------|--------------|--------------|--------------|
--------------|--------------|--------------|--------------|
--------------|--------------|--------------|--------------|
--2--2--2--2--|--2--2--2--2--|--2--2--2--2--|--2--2--0--0--|


Those melodies haunt you Ėuu,       they make no     sound
--------------|--------------|--------------|--------------|--------------|
--------------|--------------|--------------|--------------|--------------|
--------------|--------------|--------------|--------------|--9---11--12--|
--------------|--------------|--------------|--------------|--------------|
--5--5--5--5--|--5--5--5--5--|--5--5--5--5--|--5--5--5--5--|--------------|
--------------|--------------|--------------|--------------|--------------|

            
----------------------|--------------|-------------------|
----------------------|--------------|-------------------|
-----11--9--11-----9--|------11--12--|-----11--9--11-----|
----------------------|--------------|-------------------|
----------------------|--------------|-------------------|
----------------------|--------------|-------------------|


Solo:              
--------------------------|-------------|------------------|
--------------------------|-------------|------------------|
--9h--11--9h--11--9h--11--|--9h--11--9--|------------7--9--|
--------------------------|-------------|-----7h--9--------|
--------------------------|-------------|------------------|
--------------------------|-------------|------------------|

                                    (Half bend)
----------------------|------|------|---------|
--7-------------------|------|------|-----9b--|
-----------7h--9p--7--|------|------|---------|
----------------------|--7---|------|---------|
----------------------|------|------|---------|
----------------------|------|------|---------|

             (Half bend)                            
------------------|------------|------|-----------------|
------------------|------------|------|-----------------|
--7--5--7p-5--7b--|------7--5--|------|-----------5--7--|
------------------|------------|------|-----5h-7--------|
------------------|------------|------|-----------------|
------------------|------------|------|-----------------|

             
-------------|------------------|---------------|----------|
--5--8/-10---|-----10--7--------|---------------|----------|
-------------|------------9--7--|--5------5--7/-|--9---7---|
-------------|------------------|------7--------|----------|
-------------|------------------|---------------|----------|
-------------|------------------|---------------|----------|

            
-------------------------|----------|----------|-----------|
--8/-10--10--10--10--10--|------6---|----------|-----------|
-------------------------|--7-------|--8---5---|--9---12---|
-------------------------|----------|----------|-----------|
-------------------------|----------|----------|-----------|
-------------------------|----------|----------|-----------|

         
----------------|------------|----------|------------|
----------------|--12---10---|--8---5---|--14---12---|
--12h--14--10---|------------|----------|------------|
----------------|------------|----------|------------|
----------------|------------|----------|------------|
----------------|------------|----------|------------|

                      Canít find out why              the way youíre        
---------------|-------|-------|-------|------------|------|
------12--14---|--15---|--14---|--12---|------------|------|
--14-----------|-------|-------|-------|--12---11---|--9---|
---------------|-------|-------|-------|------------|------|
---------------|-------|-------|-------|------------|------|
---------------|-------|-------|-------|------------|------|

Treatiní me youíll die                  Itís a                      
------------------|--0---0--0--|-----0--0--0--|
------------------|--2---2--2--|-----2--2--2--|
------------------|--2---2--2--|-----2--2--2--|
------------------|--2---2--2--|-----2--2--2--|
------------------|--0---0--0--|-----0--0--0--|
------------------|--0---0--0--|-----0--0--0--|


Sorry affair, cause you donít really ca-are     
--10---|-----9-----|-----7-----|------3---2---|--0---|
--10---|-----9-----|-----7-----|------3---2---|--0---|
--10---|-----9-----|-----7-----|------3---2---|--0---|
--12---|----11-----|-----9-----|------5---4---|--2---|
--12---|----11-----|-----9-----|------5---4---|--2---|
--10---|-----9-----|-----7-----|------3---2---|--0---|



You donít even try-y-y
------------|--0---|------|------|------|
------------|--2---|------|------|------|
------------|--2---|------|------|------|
------------|--2---|------|------|------|
------------|--0---|------|------|------|
------------|--0---|------|------|------|


Those melodies haunt you, they make no sound
  A major 2         
--5---5--5---|--5--5--5---|--5--5--5---|--5--5--5--|
--5---5--5---|--5--5--5---|--5--5--5---|--5--5--5--|
--6---6--6---|--6--6--6---|--6--6--6---|--6--6--6--|
--7---7--7---|--7--7--7---|--7--7--7---|--7--7--7--|
--7---7--7---|--7--7--7---|--7--7--7---|--7--7--7--|
--5---5--5---|--5--5--5---|--5--5--5---|--5--5--5--|


Those melodies haunt you, when thereís no one around 
  F minor 
--2---2--2---|--2--2--2---|--2--2--2---|--2--2--2--|
--2---2--2---|--2--2--2---|--2--2--2---|--2--2--2--|
--2---2--2---|--2--2--2---|--2--2--2---|--2--2--2--|
--4---4--4---|--4--4--4---|--4--4--4---|--4--4--4--|
--4---4--4---|--4--4--4---|--4--4--4---|--4--4--4--|
--2---2--2---|--2--2--2---|--2--2--2---|--2--2--2--|


Those melodies haunt you-u,            they make no
  D major 
--2---2--2---|--2--2--2---|--2--2--2---|--2--2--2--|
--3---3--3---|--3--3--3---|--3--3--3---|--3--3--3--|
--2---2--2---|--2--2--2---|--2--2--2---|--2--2--2--|
--0---0--0---|--0--0--0---|--0--0--0---|--0--0--0--|
-------------|------------|------------|-----------|
-------------|------------|------------|-----------|


sound
  A major
--0---0--0---|--0--0--0---|--0--0--0---|--0--0--0--|
--2---2--2---|--2--2--2---|--2--2--2---|--2--2--2--|
--2---2--2---|--2--2--2---|--2--2--2---|--2--2--2--|
--2---2--2---|--2--2--2---|--2--2--2---|--2--2--2--|
--0---0--0---|--0--0--0---|--0--0--0---|--0--0--0--|
-------------|------------|------------|-----------|


Those melodies haunt you, they make no sound         
--5---5--5---|--5--5--5---|--5--5--5---|--5--5--5--|
--5---5--5---|--5--5--5---|--5--5--5---|--5--5--5--|
--6---6--6---|--6--6--6---|--6--6--6---|--6--6--6--|
--7---7--7---|--7--7--7---|--7--7--7---|--7--7--7--|
--7---7--7---|--7--7--7---|--7--7--7---|--7--7--7--|
--5---5--5---|--5--5--5---|--5--5--5---|--5--5--5--|


Those melodies haunt you, when thereís no one around  
--2---2--2---|--2--2--2---|--2--2--2---|--2--2--2--|
--2---2--2---|--2--2--2---|--2--2--2---|--2--2--2--|
--2---2--2---|--2--2--2---|--2--2--2---|--2--2--2--|
--4---4--4---|--4--4--4---|--4--4--4---|--4--4--4--|
--4---4--4---|--4--4--4---|--4--4--4---|--4--4--4--|
--2---2--2---|--2--2--2---|--2--2--2---|--2--2--2--|


Those melodies haunt you-u,            they make no 
--2---2--2---|--2--2--2---|--2--2--2---|--2--2--2--|
--3---3--3---|--3--3--3---|--3--3--3---|--3--3--3--|
--2---2--2---|--2--2--2---|--2--2--2---|--2--2--2--|
--0---0--0---|--0--0--0---|--0--0--0---|--0--0--0--|
-------------|------------|------------|-----------|
-------------|------------|------------|-----------|


sound
--0---0--0---|--0--0--0---|--0--0--0---|--0--0--0--|
--2---2--2---|--2--2--2---|--2--2--2---|--2--2--2--|
--2---2--2---|--2--2--2---|--2--2--2---|--2--2--2--|
--2---2--2---|--2--2--2---|--2--2--2---|--2--2--2--|
--0---0--0---|--0--0--0---|--0--0--0---|--0--0--0--|
-------------|------------|------------|-----------|


    Those melodies,          they haunt you now         
--5---5--5---|--5--5--5---|--5--5--5---|--5--5--5--|
--5---5--5---|--5--5--5---|--5--5--5---|--5--5--5--|
--6---6--6---|--6--6--6---|--6--6--6---|--6--6--6--|
--7---7--7---|--7--7--7---|--7--7--7---|--7--7--7--|
--7---7--7---|--7--7--7---|--7--7--7---|--7--7--7--|
--5---5--5---|--5--5--5---|--5--5--5---|--5--5--5--|


    Those melodies,        they haunt you how     
--2---2--2---|--2--2--2---|--2--2--2---|--2--2--2--|
--2---2--2---|--2--2--2---|--2--2--2---|--2--2--2--|
--2---2--2---|--2--2--2---|--2--2--2---|--2--2--2--|
--4---4--4---|--4--4--4---|--4--4--4---|--4--4--4--|
--4---4--4---|--4--4--4---|--4--4--4---|--4--4--4--|
--2---2--2---|--2--2--2---|--2--2--2---|--2--2--2--|


    Those melodies,        they haunt you no-ow      
--2---2--2---|--2--2--2---|--2--2--2---|--2--2--2--|
--3---3--3---|--3--3--3---|--3--3--3---|--3--3--3--|
--2---2--2---|--2--2--2---|--2--2--2---|--2--2--2--|
--0---0--0---|--0--0--0---|--0--0--0---|--0--0--0--|
-------------|------------|------------|-----------|
-------------|------------|------------|-----------|
        
  
--0---0--0---|--0--0--0---|--0--0--0---|--0--0--0--|
--2---2--2---|--2--2--2---|--2--2--2---|--2--2--2--|
--2---2--2---|--2--2--2---|--2--2--2---|--2--2--2--|
--2---2--2---|--2--2--2---|--2--2--2---|--2--2--2--|
--0---0--0---|--0--0--0---|--0--0--0---|--0--0--0--|
-------------|------------|------------|-----------|


    Those melodies,          they haunt you now         
--5---5--5---|--5--5--5---|--5--5--5---|--5--5--5--|
--5---5--5---|--5--5--5---|--5--5--5---|--5--5--5--|
--6---6--6---|--6--6--6---|--6--6--6---|--6--6--6--|
--7---7--7---|--7--7--7---|--7--7--7---|--7--7--7--|
--7---7--7---|--7--7--7---|--7--7--7---|--7--7--7--|
--5---5--5---|--5--5--5---|--5--5--5---|--5--5--5--|


    Those melodies,        they haunt you how     
--2---2--2---|--2--2--2---|--2--2--2---|--2--2--2--|
--2---2--2---|--2--2--2---|--2--2--2---|--2--2--2--|
--2---2--2---|--2--2--2---|--2--2--2---|--2--2--2--|
--4---4--4---|--4--4--4---|--4--4--4---|--4--4--4--|
--4---4--4---|--4--4--4---|--4--4--4---|--4--4--4--|
--2---2--2---|--2--2--2---|--2--2--2---|--2--2--2--|


    Those melodies,        they haunt you no-ow      
--2---2--2---|--2--2--2---|--2--2--2---|--2--2--2--|
--3---3--3---|--3--3--3---|--3--3--3---|--3--3--3--|
--2---2--2---|--2--2--2---|--2--2--2---|--2--2--2--|
--0---0--0---|--0--0--0---|--0--0--0---|--0--0--0--|
-------------|------------|------------|-----------|
-------------|------------|------------|-----------|

          
--0--0--0--0--0--|--0--0--0--0--0--|--0--0--0--0--0--|
--2--2--2--2--2--|--2--2--2--2--2--|--2--2--2--2--2--|
--2--2--2--2--2--|--2--2--2--2--2--|--2--2--2--2--2--|
--2--2--2--2--2--|--2--2--2--2--2--|--2--2--2--2--2--|
--0--0--0--0--0--|--0--0--0--0--0--|--0--0--0--0--0--|
-----------------|-----------------|-----------------|


       
--0--0--0--0--0--|--0---|------|------|------||
--2--2--2--2--0--|--2---|------|------|------||
--2--2--2--2--0--|--2---|------|------|------||
--2--2--2--2--0--|--2---|------|------|------||
--0--0--0--0--0--|--0---|------|------|------||
-----------------|------|------|------|------||


| *  second guitar part
| /  slide up
| \  slide down
| h  hammer-on
| p  pull-off
| ~  vibrato
| +  harmonic
| x  Mute note
===============================================================================





Comments


Popular Dodgy tabs & chords
Good Enough Chords
In A Room Chords
Jack The Lad Chords
Whole Lot Easier Chords
Youve Gotta Look Up Chords
If You're Thinking Of Me Tabs
In A Room Tabs
Long Life Tabs
Youve Gotta Look Up Tabs
Aint No Longer Asking Ukulele


Song lyrics



↑ Back to top | Tablatures and chords are parodies/interpretations of the original songs. You may use it for private study, scholarship, research or language learning purposes only
© 2014 AZChords.com Contact us | Privacy policy | DMCA | Add/correct tabs | Request tabs | Top 50 tabs