» » »

Doc Watson, Southbound Tabs (ver.1)

Artists:  A B C D E F G H I J K L M N O P Q R S T U V W X Y Z # 

Southbound Tabs (ver.1)

Doc Watson Tabs
 Rating:
4/5 (4 votes)
Southbound lessons Tabs too difficult? Try these video lessons and learn fast
1
                Southbound
Doc Watson
 Capo 3rd fret


                               2x                            
E||----------------------------||---------3--------1--------|
B||----------------------------||---------------------------|
G||*-----0-----0-----0-----0--*||*-----0-----0-----------0--|
D||*--------0-----------0-----*||*--------0-----------0-----|
A||----------------------------||---------------------------|
E||---3-----------3------------||---3-----------3-----------|


                                                      
--0--------------0--------|--3--------3--------------|
-----------3--------------|--------------------------|
-----0-----------------0--|-----0-----------0-----0--|
--------0-----------0-----|--------0-----------0-----|
--------------------------|--------------------------|
--3-----------3-----------|--3-----------3-----------|


                                                      
--------------------------|--------3--------1--------|
--------------------------|--------------------------|
-----0-----0-----0-----0--|-----0-----0-----------0--|
--------0-----------0-----|--------0-----------0-----|
--------------------------|--------------------------|
--3-----------3-----------|--3-----------3-----------|


                                                                                
--0--------------0--------|--0h-1--------------------|--1--------1-------------|
-----------3--------------|-----------------0--------|-------------------------|
-----0-----------------0--|-----------0-----------0--|-----0-----------0-------|
--------0-----------0-----|--------3-----------3-----|--------3-----------3----|
--------------------------|--------------------------|-------------------------|
--3-----------3-----------|--3-----------3-----------|--3-----------3----------|


                                                      
--------------------------|--------------------------|
--1--------------1--------|--3h-1-----------1--------|
-----0-----3-----------0--|-----------3-----------0--|
--------2-----------2-----|--------2-----------2-----|
--3-----------------------|--3-----------------------|
--------------3-----------|--------------3-----------|


                                                      
--------------------------|--------------------------|
--------------------------|--------------------------|
-----0-----0-----0-----0--|-----0-----0-----0-----0--|
--------0-----------0-----|--------0-----------0-----|
--------------------------|--------------------------|
--3-----------3-----------|--3-----------3-----------|


                                                                              
--------------------------|--0----------------------|------------------------|
--3--------1-----3--------|-----3-----1-------------|--1-------------1-------|
-----2-----------------0--|-----------------2-------|----------3-------------|
--------0-----------0-----|--------0-----------0----|-------2-----------2----|
--------------------------|-------------------------|--3---------------------|
--2-----------2-----------|--2-----------2----------|-------------3----------|


                                                    
-------------------------|-------------------------|
--3h-1-----------1-------|-------------------------|
-----------3-------------|--0-------0-----0-----0--|
--------2-----------2----|-------0-----------0-----|
--3----------------------|-------------------------|
--------------3----------|--3----------3-----------|


                           2x                            2x
--3--------3---------------||----------------------------||
---------------------------||----------------------------||
-----0-----------0-----0--*||*-----0-----0-----0-----0--*||
--------0-----------0-----*||*--------0-----------0-----*||
---------------------------||----------------------------||
--3-----------3------------||---3-----------3------------||


                                                       
---------------------------|--------------------------|
------------0--------------|-----------0--------------|
*--0h-2h-3--------0--------|--0h-2h-3--------0--------|
*--------0-----------2h-0--|--------0-----------2h-0--|
---------------------------|--------------------------|
---3-----------3-----------|--3-----------3-----------|


                                                                           
--------------------------|-------------------------||--3----------------||
-----------0--------------|-------------------------||-------------------||
--0h-2h-3--------0--------|--0--------0------------*||--0----------------||
--------0-----------2h-0--|-----2--0----------0----*||-------------------||
--------------------------|-------------------------||--2----------------||
--3-----------3-----------|--3-----------3----------||--3----------------||


            
Submit corrections

comments powered by Disqus
↑ Back to top | Doc Watson Tabs for Southbound. Lyrics for acoustic guitar and electric guitar. 1 Tablatures and chords are parodies/interpretations of the original songs. You may use it for private study, scholarship, research or language learning purposes only