» » »

Dj Tiesto, Hes A Pirate Tabs (ver.1)

Artists:  A B C D E F G H I J K L M N O P Q R S T U V W X Y Z # 

Hes A Pirate Tabs (ver.1)

Dj Tiesto Tabs
 Rating:
4/5 (4 votes)
Hes A Pirate lessons Tabs too difficult? Try these video lessons and learn fast
                Main part
     E  T T T S. T T T E.  T T T T S. T T T S.  
E||---------4----4-----------2---5----5---2----|
B||-----2------------2-------------------------|
G||--------------------------------------------|
D||--------------------------------------------|
A||--------------------------------------------|
E||--------------------------------------------|


  E  T T T S. T T T E.  T T T T S. T T T S.  
-----0---4----4---0-----------2----2--------|
--------------------------0------------0----|
--------------------------------------------|
--------------------------------------------|
--------------------------------------------|
--------------------------------------------|


  E  T T T S. T T T E.  T T T T S. T T T S.  
---------2----2---------------0----0--------|
-----2------------2-------4------------4----|
--------------------------------------------|
--------------------------------------------|
--------------------------------------------|
--------------------------------------------|


  E  T T T S. T T T E.  T T T T S. T T T S.  
---------0----0------------------------0----|
-----4------------4-------2---4----2--------|
--------------------------------------------|
--------------------------------------------|
--------------------------------------------|
--------------------------------------------|


  E  T T T S. T T T E.  T T T T S. T T T S.  
---------4--------0-------0---5--------0----|
-----4--------4--------------------4--------|
--------------------------------------------|
--------------------------------------------|
--------------------------------------------|
--------------------------------------------|


  E  T T T S. T T T E.  T T T T S. T T T S.  
-----0---4----4---7-------------------------|
--------------------------0---7----7---0----|
--------------------------------------------|
--------------------------------------------|
--------------------------------------------|
--------------------------------------------|


  E  T T T S. T T T E.  T T T T S. T T T S.  
--------------------------------------------|
---------7----7-----------4---5----5---4----|
-----6------------6-------------------------|
--------------------------------------------|
--------------------------------------------|
--------------------------------------------|


  E  T T T S. T T T E.  T T T T S. T T T S.  
---------0----0------------------------4----|
-----4------------4-----------2----2--------|
--------------------------1-----------------|
--------------------------------------------|
--------------------------------------------|
--------------------------------------------|


  E  T T T S. T T T E.  T T T T S. T T T S.  
------------------------------0--------0----|
---------2--------2-------------------------|
-----1--------1-----------2--------2--------|
--------------------------------------------|
--------------------------------------------|
--------------------------------------------|


  E  T T T S. T T T E.  T T T T S. T T T S.  
--------------------------------------------|
---------4--------2-----------2-------------|
-----1--------1-----------1--------1---2----|
--------------------------------------------|
--------------------------------------------|
--------------------------------------------|


  E  T T T S. T T T E.  T T T T S. T T T S.  
------------------------------0-------------|
---------2-----------------------------0----|
-----2--------1---2-------2-----------------|
-----------------------------------2--------|
--------------------------------------------|
--------------------------------------------|


  E  T T T S. T T T E.  T T T T S. T T T S.  
--------------------------------------------|
-----0---4----0---4-------0---2----2--------|
---------------------------------------1----|
--------------------------------------------|
--------------------------------------------|
--------------------------------------------|


  E  T T T S. T T T E.  T T T T S. T T T S.  
------------------------------2----2--------|
---------2----2-----------2------------2----|
-----1------------1-------------------------|
--------------------------------------------|
--------------------------------------------|
--------------------------------------------|


  E  T T T S. T T T E.  T T T T S. T T T S.  
---------5----5---4-------------------------|
-----2--------------------------------------|
------------------------------6----6--------|
--------------------------6------------6----|
--------------------------------------------|
--------------------------------------------|


  E  T T T S. T T T E.  T T T T S. T T T S.  
------------------2-------0---2----2--------|
---------5----5------------------------2----|
-----6--------------------------------------|
--------------------------------------------|
--------------------------------------------|
--------------------------------------------|


  E  T T T S. T T T E.  T T T T S. T T T S.  
--------------------------------------------|
---------2----2---4-----------4----4--------|
-----1--------------------1------------1----|
--------------------------------------------|
--------------------------------------------|
--------------------------------------------|


  E  T T T S. T T T E.  T T T T S. T T T S.  
------------------------------0--------0----|
---------2--------2-------------------------|
-----1--------1-----------2--------2--------|
--------------------------------------------|
--------------------------------------------|
--------------------------------------------|


  E  T T T S. T T T E.  T T T T S. T T T S.  
--------------------------------------------|
---------4--------2-----------2----2--------|
-----1--------1-----------1------------1----|
--------------------------------------------|
--------------------------------------------|
--------------------------------------------|


  E  T T T S. T T T E.  T T T T S. T T T S.  
------------------------------0----0--------|
---------2----2-----------0------------0----|
-----2------------2-------------------------|
--------------------------------------------|
--------------------------------------------|
--------------------------------------------|


  E  T T T S. T T T E.  T T T T S. T T T S.  
--------------------------------------------|
-----0---4----4---0-----------2----2--------|
--------------------------1------------1----|
--------------------------------------------|
--------------------------------------------|
--------------------------------------------|


  E  T T T S. T T T E.  T T T T S. T T T S.  
------------------------------2----2--------|
---------2----2-----------2------------2----|
-----1------------2-------------------------|
--------------------------------------------|
--------------------------------------------|
--------------------------------------------|


  E  T T T S. T T T E.  T T T T S. T T T S.  
---------5----5---4-------------------------|
-----2--------------------------------------|
------------------------------6----6--------|
--------------------------6------------6----|
--------------------------------------------|
--------------------------------------------|


  E  T T T S. T T T E.  T T T T S. T T T S.  
------------------2-------------------------|
---------5----5---------------2----2--------|
-----6--------------------1------------1----|
--------------------------------------------|
--------------------------------------------|
--------------------------------------------|


  E  T T T S. T T T E.  T T T T S. T T T S.  
--------------------------------------------|
---------2----2---1-----------2----4--------|
-----1--------------------1-----------------|
---------------------------------------4----|
--------------------------------------------|
--------------------------------------------|


  E  T T T S. T T T E.  T T T T S. T T T S.  
---------0----2-----------0---4----4---0----|
------------------0-------------------------|
-----4--------------------------------------|
--------------------------------------------|
--------------------------------------------|
--------------------------------------------|


  E  T T T S. T T T E.  T T T T S. T T T S.  
---------4----4---------------5----5--------|
-----4------------4-------2------------5----|
--------------------------------------------|
--------------------------------------------|
--------------------------------------------|
--------------------------------------------|


  E  T T T S. T T T E.  T T T T S. T T T S.  
---------5----5-----------------------------|
--------------------------------------------|
-----6------------6-----------5----6--------|
--------------------------6------------6----|
--------------------------------------------|
--------------------------------------------|


  E  T T T S. T T T E.  T T T T S. T T T S.  
--------------------------0---4----4---0----|
---------4----4---2-------------------------|
--------------------------------------------|
-----6--------------------------------------|
--------------------------------------------|
--------------------------------------------|


  E  T T T S. T T T E.  T T T T S. T T T S.  
---------4----4---0-----------2----2--------|
-----2--------------------4------------4----|
--------------------------------------------|
--------------------------------------------|
--------------------------------------------|
--------------------------------------------|


  E  T T T S. T T T E.  T T T T S. T T T S.  
---------4----4---0-------0---4----4---0----|
-----4--------------------------------------|
--------------------------------------------|
--------------------------------------------|
--------------------------------------------|
--------------------------------------------|


  E  T T T S. T T T E.  T T T T S. T T T S.  
-----0---4----4---0-------2---0----0--------|
---------------------------------------4----|
--------------------------------------------|
--------------------------------------------|
--------------------------------------------|
--------------------------------------------|


  E  T T T S. T T T E.  T T T T S. T T T S.  
--------------------------------------------|
---------2----2---------------2----2--------|
-----1------------1-------1------------1----|
--------------------------------------------|
--------------------------------------------|
--------------------------------------------|


  E  T T T S. T T T E.  T T T T S. T T T S.  
---------0----0---2-------2---0----0--------|
-----2---------------------------------4----|
--------------------------------------------|
--------------------------------------------|
--------------------------------------------|
--------------------------------------------|


  E  T T T S. T T T E.  T T T T S. T T T S.  
-----0---2----2---4-----------2----2---0----|
--------------------------0-----------------|
--------------------------------------------|
--------------------------------------------|
--------------------------------------------|
--------------------------------------------|


  E  T T T S. T T T E.  T T T T S. T T T S.  
---------4----4---2-------0---2----2---0----|
-----0--------------------------------------|
--------------------------------------------|
--------------------------------------------|
--------------------------------------------|
--------------------------------------------|


  E  T T T S. T T T E.  T T T T S. T T T S.  
--------------------------------------------|
---------2----4---0-----------2----2--------|
-----1--------------------1------------1----|
--------------------------------------------|
--------------------------------------------|
--------------------------------------------|


  E  T T T S. T T T E.  T T T T S. T T T S.  
---------0----0-----------2---0----0---2----|
-----2------------4-------------------------|
--------------------------------------------|
--------------------------------------------|
--------------------------------------------|
--------------------------------------------|


  E  T T T S. T T T E.  T T T T S. T T T S.  
-----4---2----2---0-------------------------|
------------------------------2----2--------|
--------------------------2------------2----|
--------------------------------------------|
--------------------------------------------|
--------------------------------------------|


  E  T T T S. T T T E.  T T T T S. T T T S.  
---------2----2---4-------5-----------------|
-----2---------------------------------7----|
------------------------------6----6--------|
--------------------------------------------|
--------------------------------------------|
--------------------------------------------|


  E  T T T S. T T T E.  T T T T S. T T T S T   
---------------------------------------------||
---------5----5---4-------4--------1---------||
-----6------------------------1--------1-----||
---------------------------------------------||
---------------------------------------------||
---------------------------------------------||




Duration Legend
---------------
W - whole
H - half
Q - quarter
E - 8th
S - 16th
T - 32nd
X - 64th
. - note dotted
|-n-|  - n-tuplets


Tablature Legend
----------------
L - tied note
x - dead note
g - grace note
(n) - ghost note
> - accentuded note
NH - natural harmonic
AH - artificial harmonic
TH - tapped harmonic
SH - semi harmonic
PH - pitch harmonic
h - hammer on
p - pull off
b - bend
br - bendRelease
pb - preBend
pbr - preBendRelease
brb - bendReleaseBend
\n/ - tremolo bar dip
\n - tremolo bar dive
-/n - tremolo bar Release up
/n\ - tremolo bar inverted dip
/n - tremolo bar return
-\n - tremolo bar Release down
S - shift slide
s - legato slide
/ -  slide into from below or out of upwards
\ -  slide into from above or out of downwards
~ - vibrato
W - wide vibrato
tr - trill
TP - tremolo picking
T - tapping
S - slap
P - pop
< - fade in
^ - brush up
v - brush down
            
Submit corrections

comments powered by Disqus
↑ Back to top | Dj Tiesto Tabs for Hes A Pirate. Lyrics for acoustic guitar and electric guitar. Tablatures and chords are parodies/interpretations of the original songs. You may use it for private study, scholarship, research or language learning purposes only