» » »

Adagio For Strings Tabs (ver.4)

Artists:  A B C D E F G H I J K L M N O P Q R S T U V W X Y Z # 

Adagio For Strings Tabs (ver.4)

Dj Tiesto
Rating:
0/5 (0 votes)

Hard to play? Try these video lessons and learn fast.
                DELAY IS USED IN THE SONG
IT BUILDS UP STARTING WITH EACH NOTE RINGING (LISTENING TO SONG FOR TIMING AND RHYTHM)
INTRO
E----------------------------------------------------------------|
B----------------------------------------------------------------|
G-3--3--3--3--3--3--3--3--3--3--3--3--3--3--3--3--3--3--3--3--3--|
D----------------------------------------------------------------|
A----------------------------------------------------------------|
E----------------------------------------------------------------|

E----------------------|
B----------------------|
G-3--3--3--3--3--5--5--|
D----------------------|
A----------------------|
E----------------------|

E----------------------------------------------------------------|
B----------------------------------------------------------------|
G-3----3--2--3--5--2--3--5--3--5--6--3--5--6--5--6--8--5---------| X2
D----------------------------------------------------------------|
A----------------------------------------------------------------|
E----------------------------------------------------------------|
MAIN TUNE
E------------------------------------------------------------------|
B------------------------------------------------------------------|
G-3--3--3--2--3--5--2--3--5--3--5--6--3--5--6--5--6--8--5--5--5--5-|
D------------------------------------------------------------------|
A------------------------------------------------------------------|
E------------------------------------------------------------------|
THEN DO OTHER VARIATIONS OF THE MAIN TUNE

IN BACK ROUND JUST BEFORE THE END THIS IS PLAYED OVER THE MAIN TUNE

E-14141414141413131313131313131313131313131313131313131313131111111111
B-1313131313131111111111111111111111111111111111111111111111----------|
G---------------------------------------------------------------------|
D---------------------------------------------------------------------|
A---------------------------------------------------------------------|
E---------------------------------------------------------------------|

E-11111188888888
B---------------|
G---------------|
D---------------|
A---------------|
E---------------|

E----------------------------------------------------------------|
B----------------------------------------------------------------|
G-3--3--3--3--3--3--3--3--3--3--3--3--3--3--3--3--3--3--3--3--3--|
D----------------------------------------------------------------|
A----------------------------------------------------------------|
E----------------------------------------------------------------|

E----------------|
B----------------|
G-3--3--3--3--3--|
D----------------|
A----------------|
E----------------|
                                  THANKS!

                                  CHARLIE
            
Hard to play? Try these video lessons and learn fast. | Correct




comments powered by Disqus
↑ Back to top | Tablatures and chords are parodies/interpretations of the original songs. You may use it for private study, scholarship, research or language learning purposes only