» » »

My Guru Tabs (ver.1)

Artists:  A B C D E F G H I J K L M N O P Q R S T U V W X Y Z # 

My Guru Tabs (ver.1)

Dj Shadow
Rating:
0/5 (0 votes)

Hard to play? Try these video lessons and learn fast.
                -------------------------------------------------------------------------------
-------------------------------------------------------------------------------




e|---------------------------------------------------------------------------|
B|----15-------(15)----------------------------------------------------------|
G|-14----14-14--------14-15-14-12-15-12-15-12-15-15-14-----------------------|
D|--------------------------------------------------------17-14-15-----------|
A|---------------------------------------------------------------------------|
E|---------------------------------------------------------------------------|

e|---------------------------------------------------------------------------|
B|--0--0--0--0-0-------------------------------------------------------------|
G|--9b—9b—9b—9-7-------------------------------------------------------------|
D|---------------------------------------------------------------------------|
A|---------------------------------------------------------------------------|
E|---------------------------------------------------------------------------|



===============================================================================
            
Hard to play? Try these video lessons and learn fast. | Correct




comments powered by Disqus
↑ Back to top | Tablatures and chords are parodies/interpretations of the original songs. You may use it for private study, scholarship, research or language learning purposes only