>
 >
My Guru

My Guru Guitar Tabs

Dj Shadow - My Guru chords, tabs, tablatures, lyrics

Guitar lessons | Add/correct | Request | Top 50 tabs Artists:  A B C D E F G H I J K L M N O P Q R S T U V W X Y Z 0-9

My Guru Guitar Tabs – Dj Shadow

CD, Sheet music, Poster

Do you like My Guru? Share with your friends now
Tabs
-------------------------------------------------------------------------------
-------------------------------------------------------------------------------




e|---------------------------------------------------------------------------|
B|----15-------(15)----------------------------------------------------------|
G|-14----14-14--------14-15-14-12-15-12-15-12-15-15-14-----------------------|
D|--------------------------------------------------------17-14-15-----------|
A|---------------------------------------------------------------------------|
E|---------------------------------------------------------------------------|

e|---------------------------------------------------------------------------|
B|--0--0--0--0-0-------------------------------------------------------------|
G|--9b9b9b9-7-------------------------------------------------------------|
D|---------------------------------------------------------------------------|
A|---------------------------------------------------------------------------|
E|---------------------------------------------------------------------------|



===============================================================================





Comments


Popular Dj Shadow tabs & chords
This Time Chords
Building Steam With A Grain Of Salt Tabs
High Noon Intro Tabs
Mongrel Tabs
Mongrel 1 Tabs
My Guru Intro Tabs
Organ Donor Intro Tabs
Stemlong Stem Tabs
You Made It Tabs
This Time Ukulele


Song lyrics



↑ Back to top | Tablatures and chords are parodies/interpretations of the original songs. You may use it for private study, scholarship, research or language learning purposes only
© 2014 AZChords.com Contact us | Privacy policy | DMCA | Add/correct tabs | Request tabs | Top 50 tabs