» » »

Dj Sammy, Heaven Tabs (ver.7)

Artists:  A B C D E F G H I J K L M N O P Q R S T U V W X Y Z # 

Heaven Tabs (ver.7)

Dj Sammy Tabs
 Rating:
4/5 (4 votes)
Heaven  lessons Tabs too difficult? Try these video lessons and learn fast
                (Intro2)
1------------------0--0---0---1----3--3--1--0-------------------------------|
2---1--1--1--3--3------------------------------1----------------------------|
3---------------------------------------------------------------------------|
4---------------------------------------------------------------------------|
5---------------------------------------------------------------------------|
6---------------------------------------------------------------------------|
-
1--------------------0--0---------------------------------------------------|
2---1--1--1---2--2--------3--1--3--0----------------------------------------|
3---------------------------------------------------------------------------|
4---------------------------------------------------------------------------|
5---------------------------------------------------------------------------|
6---------------------------------------------------------------------------|

1--------------0--0--1--3--3--3--1--0----------------------0--0-------------|
2---1--1--3--3-------------------------1----1--1--1--3--3-------3--1--3--0--|
3---------------------------------------------------------------------------|
4---------------------------------------------------------------------------|
5---------------------------------------------------------------------------|
6---------------------------------------------------------------------------|
            
Submit corrections

comments powered by Disqus
↑ Back to top | Dj Sammy Tabs for Heaven. Lyrics for acoustic guitar and electric guitar. Tablatures and chords are parodies/interpretations of the original songs. You may use it for private study, scholarship, research or language learning purposes only