>
 >
Heaven 1

Heaven 1 Guitar Tabs

Dj Sammy - Heaven 1 chords, tabs, tablatures, lyrics

Guitar lessons | Add/correct | Request | Top 50 tabs Artists:  A B C D E F G H I J K L M N O P Q R S T U V W X Y Z 0-9

Heaven 1 Guitar Tabs – Dj Sammy

CD, Sheet music, Poster

Do you like Heaven 1? Share with your friends now
ChordsChords v2Chords v3Chords v4Chords v5Chords v6TabsTabs v2Tabs v3Ukulele
DJ Sammy - Heaven
Tuned CGCFAD

intro lyrics,

D
A--6-6-6-6/8-8-8/10-10~-10-11-11/13-13-11/13-11-10\6---|
F------------------------------------------------------|
C------------------------------------------------------|
G------------------------------------------------------|
C------------------------------------------------------|


D---------------------------------|
A--6-6-6-6/8-8-8/10-10~-8-6-8-----|
F----------------------------6/9~-|
C---------------------------------|
G---------------------------------|
C---------------------------------|

chorus beat,

First Beginning Beat

D-----------------------------------------------------------------------|
A-----------------------------------------------------------------------|
F--7-7-9-9-9-10--14-14-17-17-9-7--7-7-9-9-9-10-9-9-9-9-9-10-10-10-10-10-|
C--7-7-9-9-9-10--14-14-15-15-9-7--7-7-9-9-9-10-9-9-9-9-9-10-10-10-10-10-|
G--5-5-7-7-7-8---12-12-15-15-7-5--5-5-7-7-7-8--7-7-7-7-7-8--8--8--8--8--|
C-----------------------------------------------------------------------|

Main Beat Throughout The Song

D----------------------------------------------------------------------|
A----------------------------------------------------------------------|
F--7-7-9-9-9-10-10-10-10-12-14-14-17-17-9-7-7-7-7-5-7-7-9-9-9-10-10-10-|
C--7-7-9-9-9-10-10-10-10-12-14-14-17-17-9-7-7-7-7-5-7-7-9-9-9-10-10-10-|
G--5-5-7-7-7-8--8--8--8--10-12-12-15-15-7-5-5-5-5-3-5-5-7-7-7-8--8--8--|
C----------------------------------------------------------------------|
cont.
D----------------------------------------------------------------------|
A----------------------------------------------------------------------|
F10-10-9-9-9-9-9-10-10-10-10-10-10--10--10--10--10-10--10--------------|
C8--8--9-9-9-9-9-10-10-10-10-10---10--10--10--10-----10--10~-----------|
G8--8--7-7-7-7-7-8--8--8--8--8-----------------------------------------|
C----------------------------------------------------------------------|

first lyrics,

D----------------------------------------------------------------------|
A0/13-13-11-10-10-10-10\8~--6-6/8-8-8\6-6-----6-6/8-8-6/8-8\6-6/8~-----|
F-------------------------/7-------------/7-/7-------------------------|
C----------------------------------------------------------------------|
G----------------------------------------------------------------------|
C----------------------------------------------------------------------|

D------------------------------------------------------|
A0/13-13-11-10-10-10-10\8~--6-6/8-8-8/6-6-6/10-10-8-8~-|
F-------------------------/7---------------------------|
C------------------------------------------------------|
G------------------------------------------------------|
C------------------------------------------------------|

D--------------------|
A-6-6-6-6/8-8-6/8-10-|
F--------------------|
C--------------------|
G--------------------|
C--------------------|

Intro Lyrics Again with Main Beat

second lyrics

D------------------------------------------------------------|
A0/13-13-11-10-10-10-10\8~-6---6-6/8-8-6-6~-6-8/10-8/10-8-8~-|
F----------------------------/7------------------------------|
C------------------------------------------------------------|
G------------------------------------------------------------|
C------------------------------------------------------------|

D-------------------------------------|
A-6-8/10-8/10-8-8~-6-6-6-6/8-8-6/8-10-|
F-------------------------------------|
C-------------------------------------|
G-------------------------------------|
C-------------------------------------|

intro lyrics
D------------------------------------------------------|
A--6-6-6-6/8-8-8/10-10~-10-11-11/13-13-11/13-11-10\6---|
F------------------------------------------------------|
C------------------------------------------------------|
G------------------------------------------------------|
C------------------------------------------------------|


D----------------------------------------|
A--6-6-6-6/8-8-8/10-10~-8-6-8------------|
F----------------------------6/9-9-11^11-|
C----------------------------------------|
G----------------------------------------|
C----------------------------------------|

D------------------------------------------------------|
A--6-6-6-6/8-8-8/10-10~-10-11-11/13-13-11/13-11-10\6---|
F------------------------------------------------------|
C------------------------------------------------------|
G------------------------------------------------------|
C------------------------------------------------------|

D------------------------------------------------------|
A--6-6-6-6/8-8-8/10-10~-8-6-8----10^-8-10~8~-----------|
F----------------------------6/9~----------------------|
C------------------------------------------------------|
G------------------------------------------------------|
C------------------------------------------------------|

mellows out n she sings this
D--------------------------------------------------|
A-8-10-10/11-10-8-6-6~-10-13-13/15-15-13-13-11/13~-|
F--------------------------------------------------|
C--------------------------------------------------|
G--------------------------------------------------|
C--------------------------------------------------|

F----------------------------------------------------|
A10-13-13/15-15-13-13-11/13~-13-13-13-13-13-13-13-13-|
D----------------------------------------------------|
C----------------------------------------------------|
G----------------------------------------------------|
C----------------------------------------------------|

Main Beat one more time then

D------------------------------------------------------|
A--6-6-6-6/8-8-8/10-10~-10-11-11/13-13-11/13-11-10\6---|
F------------------------------------------------------|
C------------------------------------------------------|
G------------------------------------------------------|
C------------------------------------------------------|

D-------------------------------------------------------------|
A--6-6-6-6/8-8-8/10-10~-10-11-13-13^-13-0/15-0/13-10/11\10----|
F---------------------------------------------------------10~-|
C-------------------------------------------------------------|
G-------------------------------------------------------------|
C-------------------------------------------------------------|

D----------------------|
A-0/15-0/13-10/11\10---|
F------------------10~-|
C----------------------|
G----------------------|
C----------------------|





Comments


Popular Dj Sammy tabs & chords
Heaven Chords
Heaven 1 Chords
Heaven 3 Chords
Heaven 4 Chords
Heaven 5 Chords
Fly On The Wings Of Love Tabs
Heaven (Intro Ver 2) Tabs
Heaven Intro 1 Tabs
Heaven Intro 2 Tabs
Heaven Ukulele


Song lyrics



↑ Back to top | Tablatures and chords are parodies/interpretations of the original songs. You may use it for private study, scholarship, research or language learning purposes only
© 2014 AZChords.com Contact us | Privacy policy | DMCA | Add/correct tabs | Request tabs | Top 50 tabs