» » »

Dj Champion, No Heaven Tabs (ver.2)

Artists:  A B C D E F G H I J K L M N O P Q R S T U V W X Y Z # 

No Heaven Tabs (ver.2)

Dj Champion Tabs
Rating:
0/5 (0 votes)
No Heaven lessons Tabs too difficult? Try these video lessons and learn fast
                This is a pretty repetitive song and pretty easy too. Enjoy!
There werent any realyy good tabs so i decided to make one

Intro (palm muted)  Chorus is the same without palm muting
e|--------------------------------------------------------------|
b|--------------------------------------------------------------|
g|--------------------------------------------------------------|
d|--------------------------------------------------------------|
a|-----5/6/7----5/6/7----5/6/7-----5/6/7------------------------|
e|--0-0------0-0------0-0------5-3------------------------------|


This part pops in a little later
e|10/12-12---10/12-12--10/12-12---12----------------------------|
b|----------------------------------12\10-----------------------|
g|--------------------------------------------------------------|
d|--------------------------------------------------------------|
a|--------------------------------------------------------------|
e|--------------------------------------------------------------|

If you want to put in more guitars or a slightly harder part then use
e|--------------------------------------------------------------|
b|--------------------------------------------------------------|
g|--------------------------------------------------------------|
d|--------------------------------------------------------------|
a|-----5/6/7-----5/6/7-----5/6/7---7\5--5/6/7-------------------|
e|-0-0-------0-0-------0-0---------5\3--------------------------|
            
Submit corrections

comments powered by Disqus
↑ Back to top | Dj Champion Tabs for No Heaven. Lyrics for acoustic guitar and electric guitar. Tablatures and chords are parodies/interpretations of the original songs. You may use it for private study, scholarship, research or language learning purposes only