» » »

Dj Champion, Nngg Tabs (ver.1)

Artists:  A B C D E F G H I J K L M N O P Q R S T U V W X Y Z # 

Nngg Tabs (ver.1)

Dj Champion Tabs
Rating:
5/5 (2 votes)
Nngg lessons Tabs too difficult? Try these video lessons and learn fast
                
Riff A (Maintained Through The Whole Song)
e|-------------------------------------------------------------------------------------|
B|-------------------------------------------------------------------------------------|
G|-------------------------------------------------------------------------------------|
D|---7---7---7---------7---7-----------------------------------------------------------|
A|-8---5---8---5-----8---5-------------------------------------------------------------|
E|----------------------------6-5------------------------------------------------------|

Riff B
e|----------------------------------------|
B|-----------10---------------------------|
G|-7//10-7-------10-7--7//10-7------7-----|
D|-----------------------------7//5-------|
A|----------------------------------------|
E|----------------------------------------|

Riff C
e|----------------------------------------|
B|-8/10-8----8/10-8----8/10-8----8/10-8---|
G|--------7---------7---------9---------7-|
D|----------------------------------------|
A|----------------------------------------|
E|----------------------------------------|
 |
e|-----------------------------------10---|
B|-8/10-8----8/10-8----8/10-8---8-10------|
G|--------7---------7---------9-----------|
D|----------------------------------------|
A|----------------------------------------|
E|----------------------------------------|

Riff D
e|----------------------------------------|
B|----------------------------------------|
G|----------------------------------------|
D|----------------------------------------|
A|-8-5--85-0-8-5--85-0--------------------|
E|---------------------3-1----------------|
            

comments powered by Disqus
↑ Back to top | Dj Champion Tabs for Nngg. Lyrics for acoustic guitar and electric guitar. Tablatures and chords are parodies/interpretations of the original songs. You may use it for private study, scholarship, research or language learning purposes only