>
 >
Alive Again

Alive Again Guitar Tabs

Dj Champion - Alive Again chords, tabs, tablatures, lyrics

Guitar lessons | Add/correct | Request | Top 50 tabs Artists:  A B C D E F G H I J K L M N O P Q R S T U V W X Y Z 0-9

Alive Again Guitar Tabs – Dj Champion

CD, Sheet music, Poster

Do you like Alive Again? Share with your friends now
ChordsTabsUkulele
As I promised in the chord version of this, Iíve tabbed it. This is my
fourth tab, and probably the hardest one so far, both to play and make. I
had to slow down the song to get the main riff. Anyway, here it is. Enjoy.

*****************************************************************************
ALIVE AGAIN

*****************************************************************************

GUITAR 1

*****************************************************************************

Main Riff:

E|-----------------------------------------------------------|
B|-----------------------------------------------------------|
G|-----------------------------------------------------------|
D|--2-2---2-----------2------------------2--------5--5--2-2--|
A|--0---0-----0-----3---3------3-----------------------------|
E|---------------------------3---3-----0---0----0------------|

Verse Riff:

E|----------------------------------------------------------------------|
B|----------------------------------------------------------------------|
G|----------------------------------------------------------------------|
D|----------------------------------------------------------------------|
A|--0-0-0-0-0-0-0-0--3-3-3-3-3-3-3-3---------------------------7-7-7-7--|
E|------------------------------------0-0-0-0-0-0-0-0-0-0-0-0-----------|
                                      (Just to avoid confusion
                                       there are 12 0s here, not 16)

Bridge Riff:


E|---------------------------------------------------------------------|
B|---------------------------------------------------------------------|
G|---------------------------------------------------------------------|
D|---------------------------------------------------------------------|
A|--0-0-0-0-0-0-0-0--3-3-3-3-3-3-3-3-----------------------------------|
E|------------------------------------0-0-0-0-0-0-0-0-0-0-0-0-0-0-0-0--|

Post - Bridge Riff

E|------------------------------------------------------|
B|------------------------------------------------------|
G|------------------------------------------------------|
D|------------------------------------------------------|
A|--0------3----------7-----------0------7----------7---|
E|-------------0-----------------------------0----------|

*****************************************************************************

GUITAR 2

*****************************************************************************

Main Riff

E|-------------------------------------------------------------------|
B|-------------------------------------------------------------------|
G|--2---2---2---2----5---5---5---5-----------------------------------|
D|--2---2---2---2----5---5---5---5----2---2---2---2---2---2---2---2--|
A|--0---0---0---0----3---3---3---3----2---2---2---2---2---2---2---2--|
E|------------------------------------0---0---0---0---0---0---0---0--|

*****************************************************************************

SONG PARTS

*****************************************************************************

INTRO
   Guitar 1 - Main Riff
   Guitar 2 - Silent

CHORUS
   Guitar 1 - Main Riff
   Guitar 2 - Main Riff

VERSE
   Guitar 1 - Verse Riff
   Guitar 2 - Silent

BRIDGE
   Guitar 1 - Bridge Riff
   Guitar 2 - Silent

POST - BRIDGE
   Guitar 1 - Post-Bridge Riff
   Guitar 2 - Silent

*****************************************************************************

SONG STRUCTURE

*****************************************************************************

INTRO
CHORUS(x3)
VERSE(x4)
CHORUS(x2)
VERSE(x4)
CHORUS(x2)
BRIDGE(x4) Note - on the fourth repetition, the 16 0s are replaced with 15 2s
POST - BRIDGE
CHORUS(x2)





Comments


Popular Dj Champion tabs & chords
No Heaven Bass Tabs
Alive Again Chords
In Between Chords
Keep On Tabs
Nngg Tabs
Nngg 1 Tabs
No Heaven Tabs
No Heaven 1 Tabs
Alive Again Ukulele
In Between Ukulele


Song lyrics



↑ Back to top | Tablatures and chords are parodies/interpretations of the original songs. You may use it for private study, scholarship, research or language learning purposes only
© 2014 AZChords.com Contact us | Privacy policy | DMCA | Add/correct tabs | Request tabs | Top 50 tabs