» » »

Django Reinhardt, I Got Tabs (ver.1)

Artists:  A B C D E F G H I J K L M N O P Q R S T U V W X Y Z # 

I Got Tabs (ver.1)

Django Reinhardt Tabs
 Rating:
4/5 (4 votes)
I Got lessons Tabs too difficult? Try these video lessons and learn fast
1
                (Rhythm)
-------------------------------------------------------------------------------
-------------------------------------------------------------------------------

Tuning:Standard

Here's a good simple song for anyone who's just starting jazz guitar, basic AABA format. 
I don't think Django originally recorded it, but his is the version I learned it off of.

Verse(A section, repeat x2)
    Bmaj7 /  Gmin   /   Cmin7  / F7  /
e|----1-------3-----------3------x-----|
B|----3-------3-----------4------3-----|
G|----2-------3-----------3------2-----|
D|----3-------3-----------5------1-----|X2
A|----1-------5-----------3------x-----|
E|------------3------------------1-----|
    Bmaj7 /  B7  /   Ebmaj7  /  Ebmin7 /
e|---1-------1---------6---------6------|
B|---3-------3---------8---------7------|
G|---2-------1---------7---------6------|
D|---3-------3---------8---------8------|
A|---1-------1---------6---------6------|
E|--------------------------------------|
    Dmin7 / Gmin   /  Cmin7  / F7   /
e|---5-------3---------3-------x-----|
B|---6-------3---------4-------3-----|
G|---5-------3---------3-------2-----|
D|---7-------3---------5-------1-----|
A|---5-------5---------3-------x-----|
E|-----------3-----------------1-----|

Chorus(B section, play through X1)
Play this part by hitting the root note, playing the full chord, hitting the 5th, and 
hitting the full chord. (R-Chord-5th-chord)
    D7            G7               C7              F7
e|--x---x---x-------3---3---3-------x---x---x-------1---1---1---1----------|
B|--3---3---3-------6---6---6-------1---1---1-------4---4---4---4----------|
G|--5---5---5-------4---4---4-------3---3---3-------2---2---2---2----------|
D|--4---4---4-------3---3---3-------2---2---2-------1---1---1---1----------|
A|5-5---5-5-5-------5-5-5---5-5-4-3-3---3-3-3-------3-3-3---3-3-3----------|
E|----5-------5-4-3-3---3-3-3---------3-------3-2-1-1---1-1-1---1----------|

Go through another A section and repeat the whole formula throughout the whole song.
            
Submit corrections

comments powered by Disqus
↑ Back to top | Django Reinhardt Tabs for I Got. Lyrics for acoustic guitar and electric guitar. 1 Tablatures and chords are parodies/interpretations of the original songs. You may use it for private study, scholarship, research or language learning purposes only