» » »

Django Reinhardt, Douce Ambience Tabs (ver.1)

Artists:  A B C D E F G H I J K L M N O P Q R S T U V W X Y Z # 

Douce Ambience Tabs (ver.1)

Django Reinhardt Tabs
 Rating:
4.2/5 (5 votes)
Douce Ambience lessons Tabs too difficult? Try these video lessons and learn fast
                -------------------------------------------------------------------------------
-------------------------------------------------------------------------------

Tuning:EADGBe

apparently this isnt the whole song but this is how i learned it

[intro]
e|---------------------------------------------------------------------------|
B|----3---33-3------3---33-3------3---33-3------3---33-3---------------------|
G|---------------------------------------------------------------------------| X2
D|---------------------------------------------------------------------------|
A|---------------------------------------------------------------------------|
E|---------------------------------------------------------------------------|

[verse]
e|-------------------------------------1-------------------------------------|
B|--3---33-3------3---33-3----3h4--23-----3-----1h3------11--1-3--3----------|
G|-------------------------------------------3-----------------------3---0---|
D|---------------------------------------------------------------------------|
A|---------------------------------------------------------------------------|
E|---------------------------------------------------------------------------|

e|-------------------------------------------------------------1-------------|
B|------------4--43----------3---33-3------3---33-3-----3h4--23-----3----1h3-|
G|---1-1---1----------------------------------------------------------3------|
D|---------------------------------------------------------------------------|
A|---------------------------------------------------------------------------|
E|---------------------------------------------------------------------------|

e|---------------------------------------------------------------------------|
B|---11---13-3---------------------------------------------------------------|
G|--------------3--0---11-1--------------------------------------------------| X1
D|---------------------------4-45--------------------------------------------|
A|---------------------------------------------------------------------------|
E|---------------------------------------------------------------------------|

[chorus.. maybe]
e|---------------------------------------------------------------------------|
B|----------------------------4----------------------------------------------|
G|--------------4-6-7---6--------5-------------------------------------------|
D|-------3-4-6----------------------5----2---3-5-3-2-------------------------|
A|---6-----------------------------------------------------------------------|
E|---------------------------------------------------------------------------|

e|---------------------------------------------------------------------------|
B|-----------------------------9-----8-----7-----------5--44-----------------|
G|--------------5-7-8---7------9-----8-----7-----------5--44-----------------| X1
D|-------4-5-7---------------------------------------------------------------|
A|---7-------------------------9-----8-----7-----------5--44-----------------|
E|---------------------------------------------------------------------------|


[verse]
e|-------------------------------------1-------------------------------------|
B|--3---33-3------3---33-3----3h4--23-----3-----1h3------11--1-3--3----------|
G|-------------------------------------------3-----------------------3---0---|
D|---------------------------------------------------------------------------|
A|---------------------------------------------------------------------------|
E|---------------------------------------------------------------------------|

e|-------------------------------------------------------------1-------------|
B|------------4--43----------3---33-3------3---33-3-----3h4--23-----3----1h3-|
G|---1-1---1----------------------------------------------------------3------|
D|---------------------------------------------------------------------------|
A|---------------------------------------------------------------------------|
E|---------------------------------------------------------------------------|

e|---------------------------------------------------------------------------|
B|---11---13-3---------------------------------------------------------------|
G|--------------3--0---11-1--------------------------------------------------| X1
D|---------------------------4-45--------------------------------------------|
A|---------------------------------------------------------------------------|
E|---------------------------------------------------------------------------|
            
Submit corrections

comments powered by Disqus
↑ Back to top | Django Reinhardt Tabs for Douce Ambience. Lyrics for acoustic guitar and electric guitar. Tablatures and chords are parodies/interpretations of the original songs. You may use it for private study, scholarship, research or language learning purposes only