» » »

Django Reinhardt, Blues For Ike Tabs (ver.1)

Artists:  A B C D E F G H I J K L M N O P Q R S T U V W X Y Z # 

Blues For Ike Tabs (ver.1)

Django Reinhardt Tabs
 Rating:
4.2/5 (5 votes)
Blues For Ike lessons Tabs too difficult? Try these video lessons and learn fast
1
                (Intro)
               Blues For Ike - Django Reinhardt

   A Django Reinhardt composition during his electric years.
   I've tabbed the main guitar and the bass (transcribed for 
   guitar - palm-muted to make it sound right) in the intro.

   Key:
   -------------------------------------------------
  | p   = pull-off                                  |
  | /   = slide up                                  |
  | \   = slide down (\\\\\ = slide down gradually) |
  | x/y = slide up from x to y                      |
  | PM  = palm-mute                                 |
   -------------------------------------------------

  |Main guitar (electric guitar):
E |------------------------------12p11p10------12p11p10------|
B |----------------------------------------------------------|
G |---------------------------------------8-9-----------9-10-|
D |----------------------------------------------------------|
A |----------------------------------------------------------|
E |----------------------------------------------------------|
  |
  |Bass:
E |----------------------------------------------------------|
B |----------------------------------------------------------|
G |----------------------------------------------------------|
D |-----0-1---0-1-0-1-0-1-0----------------------------------|
A |---1---------------------1--------------------------------|
E |-1-------------------------1------------------------------|
  PM. . . .   . . . . . . . . .

E |------------------------------12p11p10------12p11p10------|
B |----------------------------------------------------------|
G |--------------------------------------10-11---------11-12-|
D |----------------------------------------------------------|
A |----------------------------------------------------------|
E |----------------------------------------------------------|
  |
E |----------------------------------------------------------|
B |----------------------------------------------------------|
G |----------------------------------------------------------|
D |-------1-----1---1---1------------------------------------|
A |---1-4-----4---4---4---4-1--------------------------------|
E |-1-------------------------1------------------------------|
  PM. . . .   . . . . . . . . .

E |--------------------------------------------------------|
B |------------------------------10--8--------------10-----|
G |------------------------------8---6--10--8-------7------|
D |-------------------------------------11--9---9---8------|
A |--------------------------------------------------------|
E |---------------------------------------------7----------|
  |
E |----------------------------------------------------------|
B |----------------------------------------------------------|
G |----------------------------------------------------------|
D |-----0-1---0-1-0---------------------------------------0--|
A |---1-------------1----3-------1----------------------1----|
E |-1-----------------1-----0-------------------------1------|
  PM. . . .   . . . . .  .  .    .                    . . .

E |-----------------------------6/7/8----6/7/8----6/7/8------|
B |----------------------------------------------------------|
G |------------------------10---8/9/10---8/9/10---8/9/10-----|
D |------------------------10---8/9/10---8/9/10---8/9/10-----|
A |------------------------8----6/7/8----6/7/8----6/7/8------|
E |------------------------10---8/9/10---8/9/10---8/9/10-----|
  |
E |----------------------------------------------------------|
B |----------------------------------------------------------|
G |----------------------------------------------------------|
D |-1---0-1-0-1-0-1-0----------------------------------------|
A |-------------------1--------------------------------------|
E |---------------------1------------------------------------|
  PM.   . . . . . . . . .

E |----------------------------------------------------------|
B |--------------------------------------------12---------11-|
G |------------------------------7--8--11--10---------9----8-|
D |------------------------------8--9--12--11---------10---9-|
A |----------------------------------------------------------|
E |----------------------------------------------------------|
  |
E |----------------------------------------------------------|
B |----------------------------------------------------------|
G |----------------------------------------------------------|
D |-------1-----1---1---1------------------------------------|
A |---1-4-----4---4---4---4-1--------------------------------|
E |-1-------------------------1----------------------------1-|
  PM. . . .   . . . . . . . . .                            .

E |-----------------------------13\\\\\8-|
B |-----------------------------11\\\\\6-|
G |--------------------------------------|
D |--------------------------------------|
A |--------------------------------------|
E |--------------------------------------|
  |
E |--------------------------------------|
B |--------------------------------------|
G |--------------------------------------|
D |---0-1---0-1-0------------------------|
A |-1-------------1----3-----1-----------|
E |-----------------1-----0--------------|
  PM. . .   . . . . .  .  .  .
            
Submit corrections

comments powered by Disqus
↑ Back to top | Django Reinhardt Tabs for Blues For Ike. Lyrics for acoustic guitar and electric guitar. 1 Tablatures and chords are parodies/interpretations of the original songs. You may use it for private study, scholarship, research or language learning purposes only