>
 >
Twiggs Approved

Twiggs Approved Guitar Tabs

Dixie Dregs - Twiggs Approved chords, tabs, tablatures, lyrics

Guitar lessons | Add/correct | Request | Top 50 tabs Artists:  A B C D E F G H I J K L M N O P Q R S T U V W X Y Z 0-9

Twiggs Approved Guitar Tabs – Dixie Dregs

CD, Sheet music, Poster

Do you like Twiggs Approved? Share with your friends now
Tabs
E|---------------------5-3-----|-6-5-----8-6------10-8------12-10-8-13-12-10-13b15--|
B|-----------------3-6-----6-3-|-----8-6-----10-8------11-8-------------------------|
G|-3p0-2p0-5p0-3h5-------------|----------------------------------------------------|
D|-----------------------------|----------------------------------------------------|
A|-----------------------------|----------------------------------------------------|
E|-----------------------------|----------------------------------------------------|

E--|-------------3---5---------------|-----------------------------------------|
B--|-------------3---5---------------|-----------------------------------------|
G--|-------------3h4-5---5-4---------|----------------------3-3-----2-2--------|
D--|-------------------------5---3-5-|------5-5-----3-3---------------------5--|
A--|---------------------------5-----|------------------0-0-----1-1-----3-3----|
E--|---------------------------------|-3--3-----3-3----------------------------|

E|--3---5---------------|--------------------------------------------------|-3--|
B|--3---5---------------|--------------------------------------------------|-3--|
G|--3h4-5--5-4----------|--------------------------------------6-5-3---5-3-|-3--|h
D|-------------5--------|----------------------3---5-6-7-3-----------5-----|----|
A|---------------5-4-3--|------------3-5-3-6-5---6---------5-3-------------|----|
E|----------------------|---1-1--3-5---------------------------------------|----|

E|---5----------------|--------------------------------------------------|--3---|
B|---5----------------|--------------------------------------------------|--3---|
G|-4-5---5-4----------|--------------------------------3-3-----2-2-------|--3h4-|
D|-----------5---3-5--|----------------5-5-----3-3---------------------5-|------|
A|-------------5------|----------------------------0-0-----1-1-----3-3---|------|
E|--------------------|-----------3--3-----3-3---------------------------|------|

E|-5---------------|-----------------------------------------------------------|
B|-5---------------|---------------------------------------------------------3-|
G|-5---5-4---------|-------------------------------------------------3-4-5-6---|
D|---------5-------|---------------------------------3---5-6-7-3---------------|
A|-----------5-4-3-|-----------------------3-5-3-6-5---6---------5-3-----------|
E|-----------------|---------------1-1-3-5-------------------------------------|

E|---|-----------------|-----------------------------|---3------2---0--|-0--3--|
B|-4-|----5--4---------|--------------5-7--7------10-|---3------3---3--|-3--3--|
G|---|----0--4----6--4-|----------------4--4---7---7-|---0------2---0--|-0--0--|
D|---|----5--4----4--6-|--------------5-6--4---9---7-|-----------------|-------|
A|---|----3------------|--------------3-7--6--10---9-|--------------0--|-3--2--|
E|---|-0-----4----5--0-|-----------------------------|---0--2---3------|-------|

E|--5---6-|-----8--------|---------10-----12-|------12---------14-|-----14----15-|
B|--3---4-|--3--6---5----|----------8--7--10-|------10---------12-|-----12----13-|
G|--2---3-|--3--5---5--7-|------5---7--7---9-|------11---------11-|-----13----12-|
D|--4---5-|--3--7---5--5-|------5---9--7--11-|------12---------13-|-----14----14-|
A|--0-----|--------------|-------------------|--0-0----0-0-0-0--0-|-0-0--0-------|
E|------4-|-----6------7-|------0---8--------|--------------------|--------------|

E|-15--||-------------|------------10--8-|--8------------------|--------------8-|
B|-13--||-------------|------------11-10-|--8------------------|--------------8-|
G|-14--||-------------|------------10-10-|--9----------------0-|--------------9-|
D|-15--||--------5~---|----5~------------|--------5~-----0-3---|-5----5~--------|
A|-----||-------------|------------------|---------------------|----------------|
E|-----||--3--3-----3-|-3-----3--3-------|-----3-----3-3-------|---3-----3------|

E|--8-|-6----------------------|------------------6-6---8--6-|-5--5------------|
B|-10-|-8----------------------|------------------6-8--10--6-|-6--6------------|
G|-10-|-8------------------3b--|----------0-------7-8--10--7-|-5--5------------|
D|----|--------5~------0-2-----|--------------5--------------|---------5~----3-|
A|----|------------------------|-----------------------------|-----------------|
E|----|-----3-----3--3---------|------------3---3------------|------3-----3----|

E|-------|-----6---3-3-|-3-3------------------------------6-6---8--6-|-5--5-----|
B|-------|-----6---6-5-|-4-4------------------------------6-8--10--6-|-6--6-----|
G|-------|-----5---5-5-|-3-3-----------------3b--0--------7-8--10--7-|-5--5-----|
D|-------|-------------|---------5~------0-2---------5---------------|----------|
A|-31---|-------------|---------------------------------------------|-----------|
E|-----3-|-3-----------|------3-----3--3-----------3---3-------------|------3---|

E|---------------|-----6-------|----------------------------------5-3-----|-6-5--|
B|---------------|-----6-------|------------------------------3-6-----6-3-|------|
G|---------------|-----5-------|--------------2p0-2p0-5p0-3h5-------------|------|
D|-5~----3-------|---------3-2-|------------------------------------------|------|
A|---------31---|-------------|------------------------------------------|-------|
E|----3--------3-|-3-----------|------------------------------------------|------|

E|-----8-6------10-8------12-10-8-13-12-10-13b15--|------------------------------|
B|-8-6-----10-8------11-8-------------------------|------------------------------|
G|------------------------------------------------|-------------12~-12~-12~--12~-|
D|------------------------------------------------|------------------------------|
A|------------------------------------------------|------------------------------|
E|------------------------------------------------|------------------------------|

E|--|----------------------10|------------------------------------|----------------|
B|--|--------10b11--10b11-----|--------11--13b14--13--11b12--------|-11b12--11b12--|
G|--|-12~-12------------------|--11/12-----------------------12-10-|---------------|
D|--|-------------------------|------------------------------------|---------------|
A|--|-------------------------|------------------------------------|---------------|
E|--|-------------------------|------------------------------------|---------------|

E|---------------|---------------------|--------------|-------------------------|
B|--------5b6----|---------------------|--------------|-------------------------|
G|-12-12------3~-|------5b7------------|--------------|-----0-3-0-5-5--r-p3-5-5-|
D|---------------|-----------3~-5b7----|--------------|-3p0---------------------|
A|---------------|-------------------3~|--3b5---------|-------------------------|
E|---------------|---------------------|-------1~-----|-------------------------|

                             slide solo

E|------|---------------|------------------------------|------------------------|
B|------|------20~------|-----------------15-15--14-12-|-15--15-14-12--1513-----|
G|--r-3-|-5b7-----------|--------12-14/16--------------|------------------------|
D|------|---------------|------------------------------|------------------------|
A|------|---------------|------------------------------|------------------------|
E|------|---------------|------------------------------|------------------------|

E|--|-------------------|------------------|------------------------------------|
B|--|--/18---1514--12--|-15---------------|--------------------------15---------|
G|--|-------------------|----1514/15/-17--|-----------1210----15/16----18/19----|
D|--|-------------------|------------------|-----------------12-----------------|
A|--|-------------------|------------------|------------------------------------|
E|--|-------------------|------------------|------------------------------------|

E|-------------|----------------------------|----------15-17/18--18-------------|
B|-16-------20-|----------------------------|-1514/15--------------1918--15-----|
G|----20/21----|-1210----15/16--15/16/-19--|------------------------------------|
D|-------------|-------12-------------------|-----------------------------------|
A|-------------|----------------------------|-----------------------------------|
E|-------------|----------------------------|-----------------------------------|

E-|-15-2221--22----|----------|----1--3--15-15-|------------|------------10--8---|
B-|-----------------|--2--3--5-|-5--3--4--13-13-|------------|------------11-10--|
G-|---------------4-|--3--2--2-|-0--3--3--12-14-|------------|------------10-10--|
D-|---------------2-|--4--4--2-|-5--------14-15-|-------5~---|----5~-------------|
A-|---------------2-|--4--5--0-|-3--------------|------------|-------------------|
E-|---------------0-|--0--0--0-|-0--1--3--------|-3--3-----3-|-3-----3--3--------|

E-|--8------------------|--------------8--8-|-6----------------------|---------|
B-|--8------------------|--------------8-10-|-8----------------------|---------|
G-|--9----------------0-|--------------9-10-|-8------------------3b--|---------|
D-|--------5~-----0-3---|-5----5~-----------|--------5~------0-2-----|---------|
A-|---------------------|-------------------|------------------------|---------|
E-|-----3-----3-3-------|---3-----3---------|-----3-----3--3---------|---------|

E|----------6-6---8--6-|-5--5------------------|-----6---3-3-|-3-3--------------|
B|----------6-8--10--6-|-6--6------------------|-----6---6-5-|-4-4--------------|
G|--0-------7-8--10--7-|-5--5------------------|-----5---5-5-|-3-3--------------|
D|------5--------------|---------5~----3-------|-------------|---------5~-------|
A|---------------------|-----------------31---|-------------|-------------------|
E|----3---3------------|------3-----3--------3-|-3-----------|------3-----3--3--|

E|------------------6-6---8--6-|-5--5------------------|-----6-------|----------|
B|------------------6-8--10--6-|-6--6------------------|-----6-------|----------|
G|-----3b--0--------7-8--10--7-|-5--5------------------|-----5-------|----------|
D|-0-2---------5---------------|---------5~----3-------|---------3-2-|----------|
A|-----------------------------|-----------------31---|-------------|-----------|
E|-----------3---3-------------|------3-----3--------3-|-3-----------|----------|

E|--------------------------5-3-----|-6-5-----8-6------10-8------12-10-8-13-12-|
B|----------------------3-6-----6-3-|-----8-6-----10-8------11-8---------------|
G|------2p0-2p0-5p0-3h5-------------|------------------------------------------|
D|----------------------------------|------------------------------------------|
A|----------------------------------|------------------------------------------|
E|----------------------------------|------------------------------------------|

 play this little lick several times

E|-10-13b15--|------------||-------------------|--------8-10-----------------|--|
B|-----------|------------||-------------------|-10b11-------10b12--8-10---8~|--|
G|-----------|---3/43----||-14b16--14b16------|-------------------------9---|---|
D|-----------|---2/32----||-------------------|-----------------------------|---|
A|-----------|------------||-------------------|-----------------------------|--|
E|-----------|------------||-------------------|-----------------------------|--|

E|------------------------|---12--r10-------|--------15~--------------|-18b19---|
B|--------4--3--1--1----3-|-----------14-13-|-11b12-------------------|---------|
G|-9-----3--3--3--0--3h4-|-----------------|-------------------------|----------|
D|--------5--3--3--2----3-|-----------------|-------------------------|---------|
A|------------------------|-----------------|-------------------------|---------|
E|------------------------|-----------------|-------------------------|---------|

E|-15----20----18b19--15-------------|---------------------------------||------|
B|----15----15-----------15-18-17b18-|------17-------------------------||-5--4-|
G|-----------------------------------|---------------------------------||-0--4-|
D|-----------------------------------|---------------------------------||-5--4-|
A|-----------------------------------|---------------------------------||-3----|
E|-----------------------------------|---------------------------------||----4-|

E|-------|-----------------|-3-----2--0--|---------0--3--5--6-|----8-------|----|
B|-------|--5-7--7------10-|-3-----3--3--|---------3--3--3--4-|-3--6--5----|----|
G|--6--4-|----4--4---7---7-|-0-----2--0--|---------0--0--2--3-|-3--5--5--7-|--5-|
D|--4--6-|--5-6--4---9---7-|-------------|---------------4--5-|-3--7--5--5-|--5-|
A|-------|--3-7--6--10---9-|----------0--|---------3--2--0----|------------|----|
E|--5--0-|-----------------|-0--2--3-----|------------------4-|----6-----7-|--0-|

E|--10-----12-|-----14---------|------5--5----|------------------|---------|-1-|
B|---8--7--10-|--9--12--11-----|------7--5----|------------2---3-|--5---5--|-3-|
G|---7--7---9-|--9--11--11--13-|--11--7--6--4-|------------3---2-|--2---0--|-3-|
D|---9--7--11-|--9--13--11--11-|--11--------2-|------------4---4-|--2---5--|---|
A|----------0-|-----11---------|------------2-|------------4---5-|--0---3--|---|
E|---8--------|-------------13-|--14--5--5----|-----0--0---0---0-|--0---0--|-1-|

E|---3---|-3---10-10-||---|
B|---4---|-6----8--8-||---|
G|---3---|-5----9--7-||---|
D|-------|-----10--9-||---|
A|-------|-----------||---|
E|---3---|-3---------||---|





Comments


Popular Dixie Dregs tabs & chords
Aftershock Tabs
Bloodsucking Leeches Tabs
Cruise Control Tabs
Gina Lola Breakdown Tabs
Great Spectacular Tabs
Holiday Tabs
Leprechuan Promenade Tabs
Odyssey Tabs
Refried Funky Chicken Tabs
Road Expense Tabs


Song lyrics



↑ Back to top | Tablatures and chords are parodies/interpretations of the original songs. You may use it for private study, scholarship, research or language learning purposes only
© 2014 AZChords.com Contact us | Privacy policy | DMCA | Add/correct tabs | Request tabs | Top 50 tabs