>
 >
Road Expense

Road Expense Guitar Tabs

Dixie Dregs - Road Expense chords, tabs, tablatures, lyrics

Guitar lessons | Add/correct | Request | Top 50 tabs Artists:  A B C D E F G H I J K L M N O P Q R S T U V W X Y Z 0-9

Road Expense Guitar Tabs – Dixie Dregs

CD, Sheet music, Poster

Do you like Road Expense? Share with your friends now
Tabs
E-||--------------------------|------------------------------|-----------------|
B-||*---------------5---------|------------------------------|-----------------|
G-||--------------------7-7-6-|------------------9---9---7b8-|-----------------|
D-||----------4-5-6-----5-4---|------------------9---7-------|---9---9-9-------|
A-||*---4-5-7---------0-----7-|-9-7-9------9-7-----------9---|---9-9-9-9---9-7-|
E-||--0-----------------------|-7---7--7-7-7-7-7---7---7-----|---7-7-7-7-7-7-7-|

E--||----------------------5-3---|-------------------|-3--3--3-2-5-|------|-----|
B-*||----------------3-5b7-----5-|-3b----------------|-3--3--3-3-5-|------|-----|
G--||------------3h4-------------|----4--4~----------|-4--4--4-2-2-|------|-6b7-|
D--||----------5-----------------|-------------------|-------------|--2---|-----|
A-*||----------------------------|-------------------|-------------|--0---|-----|
E--||----------------------------|-------------------|-------------|------|-----|

E|----3-5-------|------------------------0-----|-------------------|-----------|
B|--3-----3-----|-------------------2b3----2--r|-------------------|-------5-8-|
G|----------6-4~|-----------------4------------|-4~----------------|-----7-----|
D|--------------|-------------4b6--------------|-------------------|-7b9-------|
A|--------------|------------------------------|-------------------|-----------|
E|--------------|------------------------------|-------------------|-----------|

E|-5--------|---------|-3--3--3-2-5-|----------|-------3-5-------|--4~----------|
B|---6b7----|---------|-3--3--3-3-5-|----------|-----3-----3-----|--------------|
G|----------|---------|-4--4--4-2-2-|----------|-6b8---------6-4-|--------------|
D|----------|---------|-------------|------2---|-----------------|--------------|
A|----------|---------|-------------|------0---|-----------------|--------------|
E|----------|---------|-------------|----------|-----------------|--------------|

E|-----|------------0--------7~--|--------------------------5------|-----------|
B|-----|-------2b3----2--r-------|----------------------5-8---8b9--|-----------|
G|-----|-----4-------------4-----|--------------------7------------|-----------|
D|-----|-4b6---------------------|----------------7b9--------------|-----------|
A|-----|-------------------------|---------------------------------|-----------|
E|-----|-------------------------|---------------------------------|-----------|

E|---------|------12b14-----11--r---------|--------10~--14b15--r-12~|----------|
B|---------|---------------------12-------|-11b12-------------------|----------|
G|---------|------------------------11b12-|-------------------------|----------|
D|---------|------------------------------|-------------------------|----------|
A|---------|------------------------------|-------------------------|----------|
E|---------|------------------------------|-------------------------|----------|

E|--------|-12-13-14-10b11--------|------------------10-12---------------|-14b16-|
B|--14b16-|-----------------12----|---------------12-------12b14~--------|-------|
G|--------|--------------------11-|--------11b12-------------------------|-------|
D|--------|-----------------------|-11b12--------------------------------|-------|
A|--------|-----------------------|--------------------------------------|-------|
E|--------|-----------------------|--------------------------------------|-------|

E|---14-13-12----------11----------------------------------------------15-14b15-|
B|------------13-14-15----12-------12-------------------------12-13-15----------|
G|---------------------------11-14----14-12----------11-12-14-------------------|
D|------------------------------------------11-12-14----------------------------|
A|------------------------------------------------------------------------------|
E|------------------------------------------------------------------------------|

E|--r------|------------------|-17b19----17-16-15-14----14----14-------|-------|
B|---15b17-|-20---------------|----------------------18----17----15-14-|-------|
G|---------|------------------|----------------------------------------|-16----|
D|---------|------------------|----------------------------------------|----14-|
A|---------|------------------|----------------------------------------|-------|
E|---------|------------------|----------------------------------------|-------|

E|-------------------------15-19--r-17-|-20-----------|---------------------|-5--|
B|----------------15-17-19-------------|--------------|---------------------|-5--|
G|-------14-16-17----------------------|--------------|---------------------|----|
D|-16-17-------------------------------|--------------|---------------------|-6--|h
A|-------------------------------------|--------------|---------------------|-7--|
E|-------------------------------------|--------------|---------------------|-5--|

E|---5-------------------------|-----------------|-------5-5-5--5---|---5-------|
B|---5-------------------------|-----------------|-------3-3-3--5---|---5-------|
G|-----------------7---7---5b6-|-----------------|-------0-0--------|-----------|
D|-7-6h7-----------4---5-------|---7-7-7---------|-----------4--6h7-|---6h7-----|
A|---7---7-7-7-7-----------7---|---7-5-7-7-7-7-5-|------------------|-7-----7-7-|
E|---5---5-5-5-5-5---5---5-----|-5-5-5-5-5-5-5-5-|------------------|-5-----5-5-|

E|-------------------|-----------------|--------------5-3-|----------14b16-------|r-b2
B|-------------------|-----------------|-------3-5b7------|----------------------|
G|-------7---7---5b6-|-----------------|---3h4------------|----------------------|
D|-7-5---4---5-------|---7-7-7---------|-5----------------|----------------------|
A|-7-7-----------7---|---7-5-7-7-7-7-5-|------------------|----------------------|
E|-5-5-5---5---5-----|-5-5-5-5-5-5-5-5-|------------------|----------------------|

E|--r-------|-----------------|--------------|--------------------|------------|
B|----12----|-12~--14b15------|--------------|--------------------|-7-10---7---|
G|-------14-|-------------2b4-|--------4-2---|---------------9b11-|------------|
D|----------|-----------------|------------4-|-3-2----------------|------9---9-|
A|----------|-----------------|--------------|-----5b6--2---------|------------|
E|----------|-----------------|--------------|------------5-------|------------|

E|--------|---------------------------|---------------------------------------|--|
B|--------|---------------------------|---------------------------------------|--|
G|-10-----|--------9---7-7b8-----7b11-|-----7-6-5-4---------------------------|--|
D|--------|------------------9-------|-------------7-6-5-4---------5-4-3-2---|---|
A|-----/9-|----------9----------------|---------------------7-6-5-4---------3~|--|
E|--------|---------------------------|---------------------------------------|--|

E|--------------|-------------------------|---------------------5------|--------|
B|--------------|-------------------------|-------------5-6-7-8---8b10-|--------|
G|------------2~|-------------------5b--2~|-----5-6-7-8----------------|--------|
D|--------------|-------------------------|---7------------------------|--------|
A|-----0-3b4----|---------------0-3-------|----------------------------|--------|
E|-0-3----------|-----------0-3-----------|----------------------------|--------|

E|-------8-5-----7b8--r-b1-|------------7-5---------------------|---------------|
B|---8-5-----8-5-----------|----------------8-5-----------------|-------5-8-5---|
G|-------------------------|--------------------8-7-5---7-5---5-|-6-7-8-------8-|
D|-------------------------|--------------------------7-----7---|---------------|
A|-------------------------|------------------------------------|---------------|
E|-------------------------|------------------------------------|---------------|

E|---------|--------8-9-10-11-10-9-8------10-8----11-8----12-|--13--13--13--13-|
B|-5-8~----|-8-9-10------------------10-8------10------10----|-----------------|
G|---------|-------------------------------------------------|-----------------|
D|---------|-------------------------------------------------|-----------------|
A|---------|-------------------------------------------------|-----------------|
E|---------|-------------------------------------------------|-----------------|

E|---------|---------------------|---4r----6--------------|------------7------8-|
B|-----3---|-----5---------------|-7-----5-9--------------|---------10--r--8-11-|
G|-----6b7-|-r-4-7---------------|------------------------|---------------------|
D|---------|---------------------|------------------------|---------------------|
A|---------|---------------------|------------------------|---------------------|
E|---------|---------------------|------------------------|---------------------|

E|-------------|----9------10--------12b14--r---------|-------------------------|
B|-------------|-12--r--10-13----------------14--r-12~|---------------5---------|
G|-------------|--------------------------------------|-------------------7-7-6-|
D|-------------|--------------------------------------|---------4-5-6-----5-4---|
A|-------------|--------------------------------------|---4-5-7---------0-----7-|
E|-------------|--------------------------------------|-0-----------------------|

E-|----------------|-------------5-3---|----------------------|-----------------|
B-|----------------|-------3-5b7-----5-|-3b-------------------|---------------5-|
G-|----------------|---3h4-------------|-----4--4~------------|-----------------|
D-|----------------|-5-----------------|----------------------|---------4-5-6---|
A-|-9-0-9--9---9-7-|-------------------|----------------------|---4-5-7---------|
E-|-7---7--7-7-7-7-|-------------------|----------------------|-0---------------|

E|---------|-----------------|-3--3--3-2-5-|------|--------3-5-------|----------|
B|---------|-----------------|-3--3--3-3-5-|------|------3-----3-----|----------|
G|---7-7-6-|-----------------|-4--4--4-2-2-|------|-6b7----------6-4~|----------|
D|---5-4---|-----9-9-9-9-9-9-|-------------|--2---|------------------|----------|
A|-0-----7-|-9-9-9-9-9-9-9-9-|-------------|--0---|------------------|----------|
E|---------|-7-7-7-7-7-7-7-7-|-------------|------|------------------|----------|

E|---------------0-----|-------------------|-----------5--------|---------|-3--|
B|----------2b3----2--r|-------------------|-------5-8---6b7----|---------|-3--|
G|--------4------------|-4~----------------|-----7--------------|---------|-4--|
D|----4b6--------------|-------------------|-7b9----------------|---------|----|
A|---------------------|-------------------|--------------------|---------|----|
E|---------------------|-------------------|--------------------|---------|----|

E|-3--3-2-5-|----------|-------3-5-------|--4~--------------|------------0------|
B|-3--3-3-5-|----------|-----3-----3-----|------------------|-------2b3----2----|r
G|-4--4-2-2-|----------|-6b8---------6-4-|------------------|-----4-------------|
D|----------|------2---|-----------------|------------------|-4b6---------------|
A|----------|------0---|-----------------|------------------|-------------------|
E|----------|----------|-----------------|------------------|-------------------|

E|----7~--|--------------------------5------|-------------------|------12b14---|
B|--------|----------------------5-8---8b9--|-------------------|--------------|
G|--4-----|--------------------7------------|-------------------|--------------|
D|--------|----------------7b9--------------|-------------------|--------------|
A|--------|---------------------------------|-------------------|--------------|
E|--------|---------------------------------|-------------------|--------------|

E|---11--r---------|--------10~--14b15--r-12~|-----------------|-12-13-14-10b11-|
B|--------12-------|-11b12-------------------|-----------14b16-|----------------|
G|-----------11b12-|-------------------------|-----------------|----------------|
D|-----------------|-------------------------|-----------------|----------------|
A|-----------------|-------------------------|-----------------|----------------|
E|-----------------|-------------------------|-----------------|----------------|

E|--------|------------------10-12---------------|-14b16---14-13-12----------11-|
B|--12----|---------------12-------12b14~--------|------------------13-14-15----|
G|-----11-|--------11b12-------------------------|------------------------------|
D|--------|-11b12--------------------------------|------------------------------|
A|--------|--------------------------------------|------------------------------|
E|--------|--------------------------------------|------------------------------|

E|----------------------------------------------15-14b15--r------|--------------|
B|-12-------12-------------------------12-13-15------------15b17-|-20-----------|
G|----11-14----14-12----------11-12-14---------------------------|--------------|
D|-------------------11-12-14------------------------------------|--------------|
A|---------------------------------------------------------------|--------------|
E|---------------------------------------------------------------|--------------|

E|-----|-17b19----17-16-15-14----14----14-------|-------------------------------|
B|-----|----------------------18----17----15-14-|----------------------15-17-19-|
G|-----|----------------------------------------|-16----------14-16-17----------|
D|-----|----------------------------------------|----14-16-17-------------------|
A|-----|----------------------------------------|-------------------------------|
E|-----|----------------------------------------|-------------------------------|


                                D G/D A/D    D G/D D  C D/C Eb/Bb F/A G/D D


E|-15-19--r-17-|-20-----------|----------|----------|------|------------*-|
B|-------------|--------------|----------|----------|------|------------*-|
G|-------------|--------------|----------|----------|------|------------*-|
D|-------------|--------------|----------|----------|------|------------*-|
A|-------------|--------------|----------|----------|------|------------*-|
E|-------------|--------------|----------|----------|------|------------*-|





Comments


Popular Dixie Dregs tabs & chords
Aftershock Tabs
Bloodsucking Leeches Tabs
Good Intentions Tabs
Great Spectacular Tabs
Ice Cakes Tabs
Little Kids Tabs
Odyssey Tabs
Pride O The Farm Tabs
Punk Sandwich Tabs
Twiggs Approved Tabs


Song lyrics



↑ Back to top | Tablatures and chords are parodies/interpretations of the original songs. You may use it for private study, scholarship, research or language learning purposes only
© 2014 AZChords.com Contact us | Privacy policy | DMCA | Add/correct tabs | Request tabs | Top 50 tabs