>
 >
Refried Funky Chicken

Refried Funky Chicken Guitar Tabs

Dixie Dregs - Refried Funky Chicken chords, tabs, tablatures, lyrics

Guitar lessons | Add/correct | Request | Top 50 tabs Artists:  A B C D E F G H I J K L M N O P Q R S T U V W X Y Z 0-9

Refried Funky Chicken Guitar Tabs – Dixie Dregs

CD, Sheet music, Poster

Do you like Refried Funky Chicken? Share with your friends now
Tabs
e|-------------------|----------------------|--------------------|-------------------|
B|---x--x--------x-x-|---------x-x-x-x-x-x--|-----x-x--------x-x-|---------x-x-x-x-x-|
G|---x--x--------x-x-|---------x-x-x-x-x-x--|-----x-x--------x-x-|---------x-x-x-x-x-|
D|---x--x--------x-x-|---------x-x-x-x-x-x--|-----x-x--------x-x-|---------x-x-x-x-x-|
A|---------7-7-------|-7--------------------|----------7-7-------|-7-----------------|
E|-0-----------0-----|---0-0-0--------------|-0------------0-----|---0-0-0-----------|

E|---|---------------------|------------------------|-------------------|-----------|
B|-x-|------x-x--------x-x-|----------x-x-x-x-x-x-x-|----x--x-------x-x-|-----------|
G|-x-|------x-x--------x-x-|----------x-x-x-x-x-x-x-|----x--x-------x-x-|---------x-|
D|-x-|------x-x--------x-x-|----------x-x-x-x-x-x-x-|----x--x-------x-x-|---------x-|
A|---|-----------7-7-------|-7----------------------|---------7-7-------|-7-------x-|
E|---|---0-----------0-----|---0-0-0----------------|-0-----------0-----|---0-0-0---|

E|------------------||--9--11----|--9--9-11-----------------|--9--11-----|---9---9--|
B|------------------||-10--12----|-10-10-12-----------------|-10--12-----|--10--10--|
G|-x----------------||--9--11----|--9--9-11-----------------|--9--11-----|---9---9--|
D|-x----------------||--9--11----|--9--9-11-----------------|--9--11-----|---9---9--|
A|-x------7-9-------||-----------|---------------7-9--------|------------|----------|
E|----7-9-----7-9-0-||-----------|-----------7-9-----7-9-0--|------------|----------|

E|-11-----------------|---9---7-----|--9--9--7----------------------|-----9--11-----|
B|-12-----------------|--10---8-----|-10-10--8----------------------|----10--12-----|
G|-11-----------------|---9---7-----|--9--9--7----------------------|-----9--11-----|
D|-11---4-3-2---------|---9---7-----|--9--9--7--4-3-2---------------|-----9--11-----|
A|------------4-3-2-0-|-------------|-----------------4-2-----2-4---|---------------|
E|--------------------|-------------|---------------------3-4-----0-|---------------|

E|--9--9--11----------------|-------------|-----------|-----------------------------|
B|-10-10--12--------------8-|---7-----6---|-10-9-8--7-|-----------------------------|
G|--9--9--11--------------9-|---8-----7---|-10-9-8--7-|-----------------------------|
D|--9--9--11----------7-9-8-|---7-----6---|--9-8-7--6-|-5-----7-5---8-5---9-5---8-5-|
A|----------------7-9-------|-------------|-10-9-8--7-|---7-5-----7-----7-----7-----|
E|------------7-9---------8-|---7-----6---|-----------|-----------------------------|

E|------------------------------------------||--------------|-----------------|------|
B|------------------------------------------||-----------5--|-----------------|------|
G|------------------------------------------||----5b6--7----|-5---------------|---8--|p
D|-----7-5-----5-------------2-2b3----------||--------------|---7---7~--------|------|
A|-7-------7-5-------0-1-0------------------||--------------|-----------------|------|
E|---------------0-3-------3-------3-(3)/--||--------------|-----------------|-------|

E|-------8-7-5---------------|--------------|-------------|--------------------|----|
B|-------------8-7-5---------|--------------|-----------5-|--------------------|----|
G|-7p5---------------8-7-5b7-|--------------|----5b6--7---|--5---------------4-|-5--|
D|-----7---------------------|--------------|-------------|----7--7~-----5-7---|----|
A|---------------------------|--------------|-------------|--------------------|----|
E|---------------------------|--------------|-------------|--------------------|----|

E|------------------|---------------5---5-7--8-|-8b10------------|-------5-7-5-------|
B|--------------5---|---7-5---8-7-5---8--------|-------5--r------|---6-7-------6-5---|
G|--4----7--5-----7-|-5-----7------------------|------------7~---|-----------------7-|
D|----7-------9-----|--------------------------|-----------------|-------------------|
A|------------------|--------------------------|-----------------|-------------------|
E|------------------|--------------------------|-----------------|-------------------|

E|-------|---------------|-----------------10----------13b14--|----10--------13b14--|
B|-------|---------------|--------10-11-12----12-11-10--------|--------/15----------|
G|-7-----|-7-7--9b11-----|--10-11-----------------------------|---------------------|
D|---9-9-|---------------|------------------------------------|---------------------|
A|-------|---------------|------------------------------------|---------------------|
E|-------|---------------|------------------------------------|---------------------|

E|----|------------------------|-14-------13-------12-10b11------------|----------7-|
B|----|-12--r-10~--------10-12-|----10-12----10-12---------------------|--------7---|
G|----|------------------------|---------------------------------------|----7-8-----|
D|----|------------------------|----------------------------------9-9--|--9---------|
A|----|------------------------|-----------------------------9-11------|------------|
E|----|------------------------|---------------------------------------|------------|

E---/17-|------9--11----|--9--9-11-----------------|--9--11-----|-------9---9--11---|
B-------|-----10--12----|-10-10-12-----------------|-10--12-----|------10--10--12---|
G-------|------9--11----|--9--9-11-----------------|--9--11-----|-------9---9--11---|
D-------|------9--11----|--9--9-11-----------------|--9--11-----|-------9---9--11---|
A-------|---------------|---------------7-9--------|------------|-------------------|
E-------|--0------------|-----------7-9-----7-9-0--|------------|-------------------|

E|---------------|---9---7-----|--9--9--7----------------------|-----9--11----|--9--9-|
B|---------------|--10---8-----|-10-10--8----------------------|----10--12----|-10-10-|
G|---------------|---9---7-----|--9--9--7----------------------|-----9--11----|--9--9-|
D|-4-3-2---------|---9---7-----|--9--9--7--4-3-2---------------|-----9--11----|--9--9-|
A|-------4-3-2-0-|-------------|-----------------4-2-----2-4---|--------------|-------|
E|---------------|-------------|---------------------3-4-----0-|--------------|-------|

E|--11----------------|-------------|-----------|-----------------------------------|
B|--12--------------8-|---7-----6---|-10-9-8--7-|-----------------------------------|
G|--11--------------9-|---8-----7---|-10-9-8--7-|-----------------------------------|
D|--11----------7-9-8-|---7-----6---|--9-8-7--6-|----5-----7-5---8-5---9-5---8-5----|
A|----------7-9-------|-------------|-10-9-8--7-|------7-5-----7-----7-----7-----7--|
E|------7-9---------8-|---7-----6---|-----------|-----------------------------------|

E|-------------------------|-----12--------|-12-----r12---|---9--12---|---------7----|
B|-------------------------|-----15--------|----15---------|--12-------|--------10---|
G|-------------------------|---------------|---------------|-----------|-------------|
D|-7-5-----5---------------|---------------|---------------|-----------|-------------|
A|-----7-5-----7-5-----5---|---------------|---------------|-----------|-------------|
E|-----------------7-5---8|---------------|---------------|-----------|--------------|

                                                                     Guitar Solo

E|-9--------|---5-----|-5---7-------|-------------|---------|------------------------|
B|---7--r---|---8-----|-8-----8p7p5-|-------------|---------|------------------------|
G|--------9-|---------|-------------|-7/9---------|---------|-----------------2b4----|r
D|----------|---------|-------------|-------------|---------|------------------------|
A|----------|---------|-------------|-------------|---------|-------------5----------|
E|----------|---------|-------------|-------------|---------|------------------------|

E|---------------------------|--------------3b5-----0------------------------------|
B|---------------------------|------------3------r3---3----------------------------|
G|-0-------------------------|-0-0-----0----------------4-2----2b4--r--2-----------|
D|---2-0---2~--0-------------|-----3-4----------------------5--------5---2-5b7--2--|
A|-------2-------2-0-0-2-----|-----------------------------------------------------|
E|-----------------------3b5-|-----------------------------------------------------|

E--------------------------------------------12--10b12---12p0-10p0-9----------------|
B---------------------7b9-5-----8-5---5/8-12-------------------------12-11-12-11-10-|
G-------------------6-------6-0-----6-----------------------------------------------|
D----0-2-0--0-----5-----------------------------------------------------------------|
A--------------/7-------------------------------------------------------------------|
E-----------------------------------------------------------------------------------|

              rake

E|---------|------------15b17--15b17-------------------------------------------------|
B|---------|--------14----------------14-12-14-14-12---10----------------------------|
G|-12-9-12-|-----15-----------------------------------9----9-12---------9-9----------|
D|---------|--17------------------------------------------------9-11-12-----12-9-11--|
A|---------|-------------------------------------------------------------------------|
E|---------|-------------------------------------------------------------------------|

     Keyboard Solo

E|-------|------------|---------------|-----------|-------------|------------|-------|
B|-------|------------|---------------|-----------|-------------|------------|-------|
G|-------|------------|---------------|-----------|-------------|------------|-------|
D|--5----|------------|---------------|-----------|-------------|------------|-------|
A|----7-|------------|---------------|-----------|-------------|------------|--------|
E|-------|------------|---------------|-----------|-------------|------------|-------|

                                   Violin Solo

E---------|---------|-----------------|--------------|---------|---------|---------|
B-----5-6-|-7-------|-----------------|--------------|---------|---------|---------|
G-----6-7-|-9-------|-----2b3--r0---0-|--------------|---------|---------|---------|
D-----5-6-|-7-------|-------------2---|-2------------|---------|---------|---------|
A---------|---------|-----------------|--------------|---------|---------|---------|
E-----5-6-|-7-------|-----------------|--------------|---------|---------|---------|

E--------|---------|----------|----------------|-12-------|-12-----r12---|---9--12---|
B--------|---------|----------|----------------|-15-------|----15---------|--12------|
G--------|---------|----------|----------------|----------|---------------|----------|
D--------|---------|----------|----------------|----------|---------------|----------|
A--------|---------|----------|----------------|----------|---------------|----------|
E--------|---------|----------|---------12--0-|----------|---------------|-----------|

E|---|---------7--9--------|---5-----|-5---7-------|------------------------------|-|
B|---|--------10----7--r---|---8-----|-8-----8p7p5-|------------------------------|-|
G|---|-------------------9-|---------|-------------|-7/9--------------------------|-|
D|---|---------------------|---------|-------------|------------------------------|-|
A|---|---------------------|---------|-------------|--------------------7-9-------|-|
E|---|---------------------|---------|-------------|----------------7-9-----7-9-0-|-|

E|---9--11----|--9--9-11-----------------|--9--11-----|---9---9--11-----------------|
B|--10--12----|-10-10-12-----------------|-10--12-----|--10--10--12-----------------|
G|---9--11----|--9--9-11-----------------|--9--11-----|---9---9--11-----------------|
D|---9--11----|--9--9-11-----------------|--9--11-----|---9---9--11---4-3-2---------|
A|------------|---------------7-9--------|------------|---------------------4-3-2-0-|
E|------------|-----------7-9-----7-9-0--|------------|-----------------------------|

E-|---9---7-----9--9--7----------------------|---9--11----|--9--9--11----------------|
B-|--10---8----10-10--8----------------------|--10--12----|-10-10--12--------------8-|
G-|---9---7-----9--9--7----------------------|---9--11----|--9--9--11--------------9-|
D-|---9---7-----9--9--7--4-3-2---------------|---9--11----|--9--9--11----------7-9-8-|
A-|----------------------------4-2-----2-4---|------------|----------------7-9-------|
E-|--------------------------------3-4-----0-|------------|------------7-9---------8-|

E-|-----------|-------------|-------------------------------|-----------------------|
B-|---7-----6-|---10-9-8--7-|-------------------------------|-----------------------|
G-|---8-----7-|---10-9-8--7-|-------------------------------|-----------------------|
D-|---7-----6-|----9-8-7--6-|-5-----7-5---8-5---9-5---8-5---|-7-5-----5-------------|
A-|-----------|---10-9-8--7-|---7-5-----7-----7-----7-----7-|-----7-5-------0-1-0---|
E-|---7-----6-|-------------|-------------------------------|-----------0-3-------3-|

E|--------------------||--------------|-----------------|-----------8-7-5------------|
B|--------------------||-----------5--|-----------------|-----------------8-7-5------|
G|--------------------||----5b6--7----|-5---------------|---8p7p5---------------8-7--|
D|-2-2b3--------------||--------------|---7---7~--------|---------7------------------|
A|--------------------||--------------|-----------------|----------------------------|
E|-------3-(3)/------||--------------|-----------------|-----------------------------|

E|-----|--------------|-------------|-------------------|---------------------|-----|
B|-----|--------------|-----------5-|-------------------|-----------------5---|---7-|
G|-5b7-|--------------|----5b6--7---|-5---------------4-|-5---4----7--5-----7-|-5---|
D|-----|--------------|-------------|---7--7~-----5-7---|-------7-------9-----|-----|
A|-----|--------------|-------------|-------------------|---------------------|-----|
E|-----|--------------|-------------|-------------------|---------------------|-----|

E|-----------5---5-7--8-|--8b10------------|-------5-7-5-------------|--------------|
B|-5---8-7-5---8--------|--------5--r------|---6-7-------6-5---------|--------------|
G|---7------------------|-------------7~---|-----------------7-7-----|-7-7--9b11----|
D|----------------------|------------------|---------------------9-9-|--------------|
A|----------------------|------------------|-------------------------|--------------|
E|----------------------|------------------|-------------------------|--------------|

E|--|-----------------10----------13b14--|----10--------13b14-----|-----------------|
B|--|--------10-11-12----12-11-10--------|--------/15-------------|-12--r-10~-------|
G|--|--10-11-----------------------------|------------------------|-----------------|
D|--|------------------------------------|------------------------|-----------------|
A|--|------------------------------------|------------------------|-----------------|
E|--|------------------------------------|------------------------|-----------------|

E|--------|-14-------13-------12-10b11------------|---------7--/17-|------9--11-----|
B|--10-12-|----10-12----10-12---------------------|-------7--------|-----10--12-----|
G|--------|---------------------------------------|---7-8----------|------9--11-----|
D|--------|----------------------------------9-9--|-9--------------|------9--11-----|
A|--------|-----------------------------9-11------|----------------|----------------|
E|--------|---------------------------------------|----------------|-0--------------|

E--|--9--9-11-----------------|--9--11-----|---9---9--11-----------------|---9---7--|
B--|-10-10-12-----------------|-10--12-----|--10--10--12-----------------|--10---8--|
G--|--9--9-11-----------------|--9--11-----|---9---9--11-----------------|---9---7--|
D--|--9--9-11-----------------|--9--11-----|---9---9--11---4-3-2---------|---9---7--|
A--|---------------7-9--------|------------|---------------------4-3-2-0-|----------|
E--|-----------7-9-----7-9-0--|------------|-----------------------------|----------|

E|--|--9--9--7----------------------|---9--11----|--9--9--11----------------|-------|
B|--|-10-10--8----------------------|--10--12----|-10-10--12--------------8-|---7---|
G|--|--9--9--7----------------------|---9--11----|--9--9--11--------------9-|---8---|
D|--|--9--9--7--4-3-2---------------|---9--11----|--9--9--11----------7-9-8-|---7---|
A|--|-----------------4-2-----2-4---|------------|----------------7-9-------|-------|
E|--|---------------------3-4-----0-|------------|------------7-9---------8-|---7---|

E|-------|-----------|-------------------------------|--------------------------|
B|---6---|-10-9-8--7-|-------------------------------|--------------------------|
G|---7---|-10-9-8--7-|-------------------------------|--------------------------|
D|---6---|--9-8-7--6-|-5-----7-5---8-5---9-5---8-5---|-7-5-----5----------------|
A|-------|-10-9-8--7-|---7-5-----7-----7-----7-----7-|-----7-5-------0-1-0------|
E|---6---|-----------|-------------------------------|-----------0-3-------3-0--|





Comments


Popular Dixie Dregs tabs & chords
Aftershock Tabs
Bash Tabs
Gina Lola Breakdown Tabs
Good Intentions Tabs
Holiday Tabs
Leprechuan Promenade Tabs
Little Kids Tabs
Punk Sandwich Tabs
Road Expense Tabs
Twiggs Approved Tabs


Song lyrics



↑ Back to top | Tablatures and chords are parodies/interpretations of the original songs. You may use it for private study, scholarship, research or language learning purposes only
© 2014 AZChords.com Contact us | Privacy policy | DMCA | Add/correct tabs | Request tabs | Top 50 tabs