>
 >
Punk Sandwich

Punk Sandwich Guitar Tabs

Dixie Dregs - Punk Sandwich chords, tabs, tablatures, lyrics

Guitar lessons | Add/correct | Request | Top 50 tabs Artists:  A B C D E F G H I J K L M N O P Q R S T U V W X Y Z 0-9

Punk Sandwich Guitar Tabs – Dixie Dregs

CD, Sheet music, Poster

Do you like Punk Sandwich? Share with your friends now
Tabs
E|-----------------|-------------------|-------------------|---------------|---|
B|-3-3-----------3-|-----------------3-|---3-----3---------|-------------3-|---|
G|-2-2-----------2-|---------5---0---2-|---2-----2---------|-------------2-|---|
D|-0-0-----------0-|---------3h4-0-5-0-|---0-----0-----3h4-|---5-----5---0-|---|
A|-----3-2-0-------|---------------2---|-----3-5-----5-0---|---2-----3-----|---|
D|-----------0-0---|-0-0-3-4-----------|-0---------0-5-----|-0---0-0---0---|-0-|

E|---------------|-----------------------|-----------------------|-------------|
B|-3-----------3-|-----------------------|-----------------------|-------------|
G|-2-----------2-|-----------0-------0---|-----------------------|-------------|
D|-0---------5-0-|-----------0-------0---|-2-----2-2-----2--2----|-2-----------|
A|---3-2-0---2---|-----------2h3p2p0-2-0-|-------0-3b4---0-------|-0-----------|
D|---------0-----|---0-0-3-4-------------|-5b7--------------5b7--|---2-2-4-5---|

E|-----------15-|-16-17-13b14-----13b14-|-------12b14--12--------------|----------|
B|-15-17b19-----|--------------15~------|-----------------13----12-----|----------|
G|--------------|-----------------------|--------------------12----10~-|---7-9b10-|
D|--------------|-----------------------|------------------------------|----------|
A|--------------|-----------------------|------------------------------|----------|
D|--------------|-----------------------|------------------------------|----------|

E|--------------------|-----------|----10---8b9--5---|------------7---5---7b8----|r
B|--8-9-10-6-7--------|-----------|--5----5--------5-|--------7b9---5---8--------|
G|-------------7------|-----7b9---|------------------|---------------------------|
D|---------------7~--|-----------|------------------|----------------------------|
A|--------------------|-----------|------------------|---------------------------|
D|--------------------|-----------|------------------|---------------------------|

E|--5-|---7-------|-------6-7-8-4-5-------------|------------|-----------------|
B|----|-----------|-----6-----------6-----------|----5b7~----|-----------------|
G|----|------7~---|-6-7---------------5-7-4-0-2~|--4---------|---------------8-|
D|----|-----------|-----------------------------|------------|-------8-11-12---|
A|----|-----------|-----------------------------|------------|-----------------|
D|----|-----------|-----------------------------|------------|-----------------|

E|-----------------8-10-11-12b14--r|-b2-r----10------|---------10-11-13-----------|
B|---------8-10-11-----------------|------------10--|------11----------10-11-13---|
G|-9-10-11-------------------------|-----------------|-9-10-----------------------|
D|---------------------------------|-----------------|----------------------------|
A|---------------------------------|-----------------|----------------------------|
D|---------------------------------|-----------------|----------------------------|

E|----------12-13-15-|-------15--r-12--14-----------|--------------------------|
B|-12-13-15----------|--------------------12b14--r--|--------------------------|
G|-------------------|------------------------------|------9b10--9-10-11-12b14-|
D|-------------------|------------------------------|--------------------------|
A|-------------------|------------------------------|--------------------------|
D|-------------------|------------------------------|--------------------------|

E|--|----------|------8-11-12-8---10b12--|--------10~------|-13-14-15-15b17----|
B|--|-10~------|-8-10-----------8--------|-----------------|----------------13-|
G|--|----------|-------------------------|-----------------|-------------------|
D|--|----------|-------------------------|-----------------|-------------------|
A|--|----------|-------------------------|-----------------|-------------------|
D|--|----------|-------------------------|-----------------|-------------------|

E|-15-----|----------------------------|-----------------|---------------------|
B|--------|-17--r---15-----------------|-5b6---6----5b7--|-------------5-3-----|
G|-----14-|-------------17-16-14-------|-----3----4------|-----------------5-4-|
D|--------|------16--------------17-16-|-----------------|---------------------|
A|--------|----------------------------|-----------------|---------------------|
D|--------|----------------------------|-----------------|---------------------|

E|-------|---------------|-----------------||-----------------|-----------------|
B|-----3-|-------3-------|-----------------||*-3-3-----3------|-----------------|
G|-----2-|-------2-------|-----------------||--2-2-----2------|-----------------|
D|-3-2-0-|-------0-------|-------5---5-----||--0-0-----0------|-------5---5-----|
A|-------|---3-5---------|-------2---3-----||*-----3-5--------|-------2---3-----|
D|-------|---------0-0-0-|-0-0-0---0---0-0-||-------------0-0-|-0-0-0---0---0-0-|

                                                                  solo

E--||---------------------------------|----------------|-----------------------|
B-*||---------------------------------|-------3--------|-----------------------|
G--||-5-4-2-----2---------------------|-----0----------|-----------2b4---------|
D--||-------3-4---4-3-2-----2-------0-|-2-4------------|-----------------------|
A-*||-------------------4-5---3-4-0---|----------------|-----------------------|
D--||---------------------------------|----------------|-----------------------|

E-|------------|-------------------|------------|--------|------------------------|
B-|------------|-------------------|------------|--------|------------------------|
G-|-2--r-------|-------------------|------------|--------|------------------------|
D-|-----2--2---|-4b5-4b5----2---2--|------------|--------|-----------------5-7b9--|
A-|----------4-|----------4---4----|-4-----2b3-|-r-0-0--|---------------5---------|
D-|------------|-------------------|------------|--------|-----------7/9----------|

E|---------|-5--------------------|-----------------------------|---------------|
B|---------|----8--7-5------------|-----------------------------|---------------|
G|--7-8b9--|-----------8--8-7-5---|-7-----5b--------------------|---------------|
D|---------|--------------------7-|---7-7-----7-5-----7-5-----5-|-----------2---|
A|---------|----------------------|---------------7-7-----7-7---|---------------|
D|---------|----------------------|-----------------------------|-------------2-|

E|---------|----------------|-------9-------------------|------------------10-12-|
B|---------|----------------|----12---12b14---r--b2-----|---------------10-------|
G|---------|----------------|-11---------------------r--|------------12----------|
D|-----2---|-----2---5b6----|---------------------------|------------------------|
A|---------|----------------|---------------------------|------------------------|
D|-2-2---2-|-2-2---2--------|---------------------------|------------------------|

E|-13-14----|----------------------12------|----------|-20-19-18-17-------------|
B|-------10-|-11-12-------------15----15---|----------|-------------21-20-19-18-|
G|----------|-------12----14b16-----------r|--15~-----|-------------------------|
D|----------|----------12------------------|----------|-------------------------|
A|----------|------------------------------|----------|-------------------------|
D|----------|------------------------------|----------|-------------------------|

E|----------|----------------0-|-------|--------|--------|------0-|------------|
B|----------|----------------0-|-------|------3-|--------|------0-|------------|
G|-21-20-19-|----------------5-|-------|------2-|--------|------5-|------------|
D|----------|----------------5-|-------|------0-|--------|------5-|------------|
A|----------|----------------0-|-------|------0-|--------|------0-|------------|
D|----------|------------------|-------|------0-|--------|--------|------------|

E|-----------|-------|--------|--------|----0-|--------------------0-|---------|
B|-----------|-----3-|------3-|------3-|----0-|--------------------1-|------3--|
G|-----------|-----2-|------0-|------4-|----4-|--------------------0-|------0--|
D|-----------|-----0-|------5-|------4-|----2-|--------------------2-|------5--|
A|-----------|-----0-|------5-|------2-|----2-|--------------------3-|------5--|
D|-----------|-----0-|------5-|--------|----2-|----------------------|------5--|

E|-------4-|------5---|------------------5-----|-------------|-----------------|
B|-------0-|------5---|------------------3---3-|-------------|-----------------|
G|-------4-|------2---|------------------0---2-|-------------|-----------------|
D|-------2-|------2---|------------------0---0-|-------------|-----------------|
A|-------2-|------0---|------------------------|-------------|---------------5-|
D|-------2-|----------|------------------5-----|-0-0-0-0-0-0-|-0-0-0-0-0-0-0-7-|

E-|-------------|-----------------|-----------------|-----------------|--------|
B-|-------------|-----------------|-----------------|-----------------|--------|
G-|-------------|-----------------|-----------------|-----------------|--------|
D-|-------------|-----------------|-----------------|-----------------|--------|
A-|-------------|-----------------|-5---------------|-----------------|--------|
D-|-0-0-0-0-0-0-|---0-0-0-0-0-0-0-|-7---0-0-0-0-0-0-|-0-0-0-0-0-0-0-0-|--------|

E|----------------------0-|---2-----|-------|----------|-----------------------|
B|---------------2--3---0-|---3---3-|-------|--------3-|-----------------------|
G|---------------2--2---4-|---2---0-|-------|--5--5--0-|---------------------5-|
D|---------------2--4---2-|---2---5-|-------|--2--2--5-|---------------------2-|
A|---------------0--0---2-|---2-----|-------|----------|-----------------------|
D|----------------------2-|---2---5-|-------|--5--5--5-|---------------------5-|

E|---------|------0-|--------|-------|---------------------15-|-16-17-13b14------|
B|------3--|------0-|------3-|-------|-----------15-17b19-----|--------------15~-|
G|--5---4--|------4-|------0-|-------|------------------------|------------------|
D|--2---4--|------2-|------0-|-------|------------------------|------------------|
A|------2--|------2-|------5-|-------|------------------------|------------------|
D|--5------|------2-|------5-|-------|------------------------|------------------|

E|-13b14-|-------12b14--12--------------|-----------------------------|----------|
B|-------|-----------------13----12-----|-----------8-9-10-6-7--------|----------|
G|-------|--------------------12----10~-|---7-9b10-------------7------|-----7b9--|
D|-------|------------------------------|------------------------7~--|-----------|
A|-------|------------------------------|-----------------------------|----------|
D|-------|------------------------------|-----------------------------|----------|

E|---|----10---8b9--5---|------------7---5---7b8--r-5-|---7-------|-------6-7-8-|
B|---|--5----5--------5-|--------7b9---5---8----------|-----------|-----6-------|
G|---|------------------|-----------------------------|------7~---|-6-7---------|
D|---|------------------|-----------------------------|-----------|-------------|
A|---|------------------|-----------------------------|-----------|-------------|
D|---|------------------|-----------------------------|-----------|-------------|

E|-4-5-------------|------------|---------------------------------8-10-11-12b14-|
B|-----6-----------|----5b7~----|-------------------------8-10-11---------------|
G|-------5-7-4-0-2~|--4---------|---------------8-9-10-11-----------------------|
D|-----------------|------------|-------8-11-12---------------------------------|
A|-----------------|------------|-----------------------------------------------|
D|-----------------|------------|-----------------------------------------------|

E|--r|-b2-r----10------|---------10-11-13-------------------12-13-15-|-------15--|
B|---|------------10--|------11----------10-11-13-12-13-15----------|------------|
G|---|-----------------|-9-10----------------------------------------|-----------|
D|---|-----------------|---------------------------------------------|-----------|
A|---|-----------------|---------------------------------------------|-----------|
D|---|-----------------|---------------------------------------------|-----------|

E|--r-12--14-----------|---------------------------|----------|------8-11-12-8-|
B|-----------12b14--r--|---------------------------|-10~------|-8-10-----------|
G|---------------------|------9b10--9-10-11-12b14--|----------|----------------|
D|---------------------|---------------------------|----------|----------------|
A|---------------------|---------------------------|----------|----------------|
D|---------------------|---------------------------|----------|----------------|

E|---10b12--|--------10~------|-13-14-15-15b17----15-----|----------------------|
B|-8--------|-----------------|----------------13--------|-17--r---15-----------|
G|----------|-----------------|-----------------------14-|-------------17-16-14-|
D|----------|-----------------|--------------------------|------16--------------|
A|----------|-----------------|--------------------------|----------------------|
D|----------|-----------------|--------------------------|----------------------|

E|-------|-----------------|--------------|-----------------------------------|
B|-------|-5b6---6----5b7--|----5b7--r3---|-----------------------------------|
G|-------|-----3----4------|--------------|-----------------------------------|
D|-17-16-|-----------------|--------------|------------------2-4-2-----2------|
A|-------|-----------------|--------------|----------2-3-4-5-------5-4---5-4--|
D|-------|-----------------|--------------|-4-5--6-7--------------------------|

E|---------------------------------|--------------------------------------------|
B|-------------------2-3-2-5-2-3-2-|--------------------------------------------|
G|-------------2-3-4---------------|--------------4-3-2-----2-------------------|
D|-------2-3-4---------------------|--------------------5-6---6-5-4-2-----------|
A|-2-3-4---------------------------|----------------------------------5-4-3-2---|
D|---------------------------------|------------------------------------------6-|

E|---|---------------------------------|---------------------------------------|
B|---|---------------------------------|---------------------5-6-7-6-5---------|
G|---|---------------------------2---2-|---------------4-6-7-----------7-6-4---|
D|---|-------2-----4-2---2-5-2-5---5---|-------------------------------------6-|
A|-2-|-3-2-3---3-3-----3---------------|---------------------------------------|
D|---|---------------------------------|---------------------------------------|

E|---------|---------------------------------|---------------------------------|
B|---------|---------------------------------|---------------------------------|
G|---4-6-4-|-7-6-5-7-3-4---------------------|---------------------------------|
D|-7-------|-------------5---2-3-2-----------|---------------------------------|
A|---------|---------------5-------5-4-3-1-2-|---------------------------2-3-4-|
D|---------|---------------------------------|---------------5-4-2-4-5-6-------|

E|-------------|------------------------------|
B|-------------|------------------------------|
G|-------------|------------------------------|
D|---2-3-4-5-4~|-5-6-7------------------------|
A|-5-----------|-------5-6-7-4-5--------------|
D|-------------|-----------------5-6-7-3-5-0--|





Comments


Popular Dixie Dregs tabs & chords
Bash Tabs
Cruise Control Tabs
Gina Lola Breakdown Tabs
Good Intentions Tabs
Great Spectacular Tabs
Holiday Tabs
Ice Cakes Tabs
Pride O The Farm Tabs
Road Expense Tabs
Twiggs Approved Tabs


Song lyrics



↑ Back to top | Tablatures and chords are parodies/interpretations of the original songs. You may use it for private study, scholarship, research or language learning purposes only
© 2014 AZChords.com Contact us | Privacy policy | DMCA | Add/correct tabs | Request tabs | Top 50 tabs