>
 >
Pride O The Farm

Pride O The Farm Guitar Tabs

Dixie Dregs - Pride O The Farm chords, tabs, tablatures, lyrics

Guitar lessons | Add/correct | Request | Top 50 tabs Artists:  A B C D E F G H I J K L M N O P Q R S T U V W X Y Z 0-9

Pride O The Farm Guitar Tabs – Dixie Dregs

CD, Sheet music, Poster

Do you like Pride O The Farm? Share with your friends now
Tabs
e|-------3-3-5h7-|--------5h3---|-------3-3---7h8-|-----5h7-------|-------3-3-5-|
B|-3h5-5---3-3---|--------3-----|-3h5-5---3---5---|-----3---------|-3h5-5---3-3-|
G|-0---0---0-0---|-0-0-0------0-|-0---0---0-0-0---|-0-0-0---0-0-0-|-0---0---0-0-|
D|---------------|--------------|-----------------|---------------|-------------|
A|---------------|--------------|-----------------|---------------|-------------|
E|---------------|--------------|-----------------|---------------|-------------|

E|-7-|---------------5p3---|-------3-3---5h7-|-5p3-3--5----|-------3-3--5h7-|---|
B|---|---------------3-----|-3h5-5-------3---|-3---3--3----|-3h5-5---3--3---|---|
G|---|--------0-0-0------0-|-0---0---0-0-0---|-0---4--2----|-0---0---0--0---|-0-|
D|---|---------------------|-----------------|-----------0-|----------------|---|
A|---|---------------------|-----------------|-------------|----------------|---|
E|---|---------------------|-----------------|-------------|----------------|---|

E|-----5p3---|--------------3-3---7h8-|-----10-------|-------3-3--5h7-|-----8---|
B|-----3-----|--------3h5-5---3---5---|------8-------|-3h5-5---3--3---|-----5---|
G|-0-0-----0-|--------0---0---0-0-0---|-0-0--0-0-0-0-|-0---0---0--0---|-0-0-0-0-|
D|-----------|------------------------|--------------|----------------|---------|
A|-----------|------------------------|--------------|----------------|---------|
E|-----------|------------------------|--------------|----------------|---------|

E|-----10-|---12------5h7-|--------5--3---|--------|---------|-----|-----|-------|
B|------8-|----8------3---|--------3--3---|--------|---------|-----|-----|--<12>-|
G|-0-0--0-|-0--0--0-0-0---|--------2--0---|--------|---------|-----|-----|--<12>-|
D|--------|---------------|---------------|--------|---------|-----|-----|--<12>-|
A|--------|---------------|---------------|--------|---------|-----|-----|-------|
E|--------|---------------|---------------|--------|---------|-----|-----|-------|

E|---|---|----|----------||--------------0---|-1-0-------------|---------------|
B|---|---|----|----------||*---------3-0---3-|-----3-2-1-----1-|---------------|
G|---|---|----|----------||--0-2-3-4---------|-----------2-3---|-3-2-0---2-0---|
D|---|---|----|----0-1-2-||------------------|-----------------|-------2-----1-|
A|---|---|----|----------||*-----------------|-----------------|---------------|
E|---|---|----|----------||------------------|-----------------|---------------|

E|---|------------|-----------------|-----------------|-----------------|------|
B|---|------------|-----------------|---------------1-|-2-1-2-6-5-3-----|------|
G|---|------3-2-0-|-----------------|-2-5-4-2---------|-------------3-2-|-0----|
D|-2-|------------|-----2-5-4-2-----|---------3-4-0---|-----------------|------|
A|---|-3----------|-3-4---------3-4-|-----------------|-----------------|------|
E|---|------------|-----------------|-----------------|-----------------|------|

E|--|-------------------|---3-5-6-7-----|------------3-6-5-3-----|-----6-5-3--|
B|--|-------------0-----|-7---------8---|--------4-5---------4-5-|------------|
G|--|-------0-2-3---7b9-|-------------7-|------------------------|-5----------|
D|--|-0-1-2-------------|---------------|------------------------|------------|
A|--|-------------------|---------------|------------------------|------------|
E|--|-------------------|---------------|------------------------|------------|

 1st time

E|-----------------|-5-8-7-5-------3-|-----------------|-----------------------|-|
B|-----5-8-7-5-----|---------6-7-----|-6-5-3-----------|----------------------*|-|
G|-5-6---------5-6-|-------------7---|-------6-5-3-4---|-----------------------|-|
D|-----------------|-----------------|---------------5-|----------------0-1-2--|-|
A|-----------------|-----------------|-----------------|------5-0-1-2-3-------*|-|
E|-----------------|-----------------|-----------------|-----------------------|-|

 2nd time

E|-----------------|-5-8-7-5-------6-|-5---------------|-------|-------------7-|
B|-----5-8-7-5-----|---------6-7-----|-------5-3-------|----8--|-------8---8---|
G|-5-6---------5-6-|-------------7---|---3-4-----------|-------|---------------|
D|-----------------|-----------------|-----------5-4-2-|-------|---------------|
A|-----------------|-----------------|-----------------|-------|---------------|
E|-----------------|-----------------|-----------------|-------|---------------|

E-|--8-10-12-|------------|----------|-5p3---3--|-5-----|------|-----------/10-|
B-|----------|-12p10--10--|--12---13-|----------|---6-5-|-3----|---------------|
G-|----------|------------|----------|----------|-------|------|---------------|
D-|----------|------------|----------|----------|-------|------|---------------|
A-|----------|------------|----------|----------|-------|------|---------------|
E-|----------|------------|----------|----------|-------|------|---------------|

E-|-10---12-13-|-13--15/17--18-|-15--r-15-|-15---15-|-15-17--17-|-18--18/20-|-20b22-|
B-|------------|---------------|----------|---------|-----------|-----------|-------|
G-|------------|---------------|----------|---------|-----------|-----------|-------|
D-|------------|---------------|----------|---------|-----------|-----------|-------|
A-|------------|---------------|----------|---------|-----------|-----------|-------|
E-|------------|---------------|----------|---------|-----------|-----------|-------|

E|---|------------------||--------15-19-17-15-------|-12-17-15-------10-15-13--|
B|---|------------------||*-15-17-------------12-15-|----------10-12-----------|
G|---|---------16-17-18-||--------------------------|--------------------------|
D|---|------------------||--------------------------|--------------------------|
A|---|------------------||*-------------------------|--------------------------|
E|---|------------------||--------------------------|--------------------------|

E|------8-12-10-----5-|-10-8-----3-8-7---|-------------3-6-5-------|-5-10-8-----|
B|-8-10---------5-8---|------3-5---------|-----------5-------4-5-7-|------------|
G|--------------------|----------------5-|---------6---------------|--------4-5-|
D|--------------------|------------------|-------------------------|------------|
A|--------------------|------------------|-------------------------|------------|
E|--------------------|------------------|-------------------------|------------|

        1st time

E|-------|-6-7-----0-------|--------|---------------|-------------------------|
B|---5-8-|-----7-8---3-----|--------|---------------|--------5---------6-5----|
G|-7-----|-------------3-2-|-0------|-------5-----5-|----------7---4-7-----7--|
D|-------|-----------------|--------|---5-7---5-7---|------------6------------|
A|-------|-----------------|------6-|-7-------------|-------------------------|
E|-------|-----------------|--------|---------------|-------------------------|

E|--------------------|-----------------|---------------------|----------------|
B|---------5-----9b11-|--7-----7-10-8-7-|------8-11/12------8-|-12-10-------10-|
G|---5-7-8-----6------|------7----------|----9------------9---|----------11----|
D|-7---------8--------|----9------------|-10-----------11-----|-------12-------|
A|--------------------|-----------------|---------------------|----------------|
E|--------------------|-----------------|---------------------|----------------|

                                                                 2nd time

E|----------|-------------------------|-12-13-14-----------------||-6-7-8-9-10-|
B|-13-12-10-|----------12-15-------13-|----------15----12-13-14-*||------------|
G|----------|-------12-------12-14----|-------------14-----------||------------|
D|----------|-13-14-------------------|--------------------------||------------|
A|----------|-------------------------|-------------------------*||------------|
E|----------|-------------------------|--------------------------||------------|

E|-------|---1--0-||--------------3-3-5h7-|--------5h3---|-------3-3---7h8-|---|
B|-------|---1--1-||--------3h5-5---3-3---|--------3-----|-3h5-5---3---5---|---|
G|-0-3-2-|-0-2--0-||--------0---0---0-0---|-0-0-0------0-|-0---0---0-0-0---|-0-|
D|-------|---3--2-||----------------------|--------------|-----------------|---|
A|-------|--------||----------------------|--------------|-----------------|---|
E|-------|--------||----------------------|--------------|-----------------|---|

E|---5h7-------|--------3-3--5h7-|-------5h3---|-------3-3---5h7-|-5p3-3--5----|
B|---3---------|--3h5-5---3--3---|-------3-----|-3h5-5-------3---|-3---3--3----|
G|-0-0---0-0-0-|--0---0---0--0---|-0-0-0-----0-|-0---0---0-0-0---|-0---5--2----|
D|-------------|-----------------|-------------|-----------------|-----------0-|
A|-------------|-----------------|-------------|-----------------|-------------|
E|-------------|-----------------|-------------|-----------------|-------------|

E-|-------3-3--5h7-|-------5h3---|-------3-3---7h8-|-----10--------|-----------|
B-|-3h5-5---3--3---|-------3-----|-3h5-5---3---5---|------8--------|-----------|
G-|-0---0---0--0---|-0-0-0-----0-|-0---0---0-0-0---|-0-0--0--0-0-0-|-----------|
D-|----------------|-------------|-----------------|---------------|-----------|
A-|----------------|-------------|-----------------|---------------|-----------|
E-|----------------|-------------|-----------------|---------------|-----------|

                                                                Piano Then Violin Solos

E|------------3-3-5h7-|-----8-------10-|-12------5h7-|-5--3-||-----------------|
B|------3h5-5---3-3---|-----5--------8-|--8------3---|-3--3-||-----------------|
G|------0---0---0-0---|-0-0-0-0-0-0--0-|--0--0-0-0---|-2--0-||-----------------|
D|--------------------|----------------|-------------|------||-----------------|
A|--------------------|----------------|-------------|------||-----------------|
E|--------------------|----------------|-------------|------||---------------0-|

E|-----|-----------------|---------0--------|---------------10-------|-12-------|
B|-----|-----------------|---0---3---6-8-10-|-8-10-12-10-12----12-15-|----14-17-|
G|-----|---------------0-|-----5------------|------------------------|----------|
D|-----|---------0-------|-7----------------|------------------------|----------|
A|-----|---0---3---7-8---|------------------|------------------------|----------|
E|-1-2-|-3---7-----------|------------------|------------------------|----------|

E|-15-17-18-17-15-||-17---17b19--15-|------------|-------15---------|-----------|
B|----------------||-----------------|---15b17----|----------15--13-|-----------|
G|----------------||-----------------|------------|------------------|----------|
D|----------------||-----------------|------------|------------------|----------|
A|----------------||-----------------|------------|------------------|----------|
E|----------------||-----------------|------------|------------------|----------|

E|-----------------------------|------------------|-10-9-8--|-6/7--------------|
B|-12b13--12-12-12-10----12----|-10--12-10--10b12-|---------|-----8---7-5------|
G|--------------------11----11-|------------------|---------|-------7-----7-6--|
D|-----------------------------|------------------|---------|------------------|
A|-----------------------------|------------------|---------|------------------|
E|-----------------------------|------------------|---------|------------------|

E|-------------------|-----------------|------------------|---------|-----------|
B|-------------------|-----------------|------------------|---------|-----------|
G|----2/3-5--3-4-----|-----------------|------------------|---------|-----------|
D|---------------5---|-0-0-3-0---------|------------------|---------|-----------|
A|-----------------5-|---------3-1-----|-1b2--3-1---------|---------|-------3-4-|
E|-------------------|-------------1-3-|----------3-2-1-0-|-0-------|-3-4-5-----|

E|--------|---------------------|----------------|-----------|-----------------|
B|--------|---------------------|----------------|-----------|-----------------|
G|--------|-----------2b4---3-2-|----------------|-----------|-----------------|
D|-2b4--r-|-----4-2-4-----------|-5-2-----0------|-----------|-----------------|
A|--------|---------------------|-----5-2---1b2--|-----------|-------5-6-7-5-6-|
E|--------|---------------------|----------------|-3---------|-5-7-8-----------|

E-|-----------------|---------------------|-------------------|-----------------|
B-|-----------------|---------------------|-------------------|-----------------|
G-|-----------------|---------------------|-------------------|-----------------|
D-|---5-7-5---------|------7------------7-|-------------------|--------7------7-|
A-|-7-------7-6-5-7-|----9---9-8-7--------|-------------7-8-9-|-8-8-10---8-10---|
E-|-----------------|--------------9-10---|-10-8-8-8-10-------|-----------------|

E|---|--------------------|-------------------|--------------------|------------|
B|---|--------------------|-------------------|--------------------|------------|
G|---|------------------7-|-8-9-10-9-8-7----7-|--------7-7---------|------------|
D|-7-|----7-9-10-7-9-10---|--------------11---|----8/9-----8-7-----|------------|
A|---|-10-----------------|-------------------|----------------10--|--------8-9-|
E|---|--------------------|-------------------|--------------------|-8-9-10-----|

E|---------|--------------------------|-----------15-12-------|----------------|
B|---------|-------------------13-15--|-15b17--15-------15-14-|-13-12----------|
G|---------|----10-12-10-12/14--------|-----------------------|-------15-14-13-|
D|----8-10/|-12-----------------------|-----------------------|----------------|
A|-10------|--------------------------|-----------------------|----------------|
E|---------|--------------------------|-----------------------|----------------|

E|----------|----------------------------|-------------13--15-|--15b17-----|----|
B|----------|----------------------------|-15-13-16-15--------|------------|----|
G|-12-------|-------------------15-17-15-|--------------------|------------|-16-|
D|----14-11-|----13-11-13-15-17----------|--------------------|------------|----|
A|----------|----------------------------|--------------------|------------|----|
E|----------|----------------------------|--------------------|------------|----|

E|-------||--------15-19-17-15-------|-12-17-15-------10-15-13-|------8-12-10---|
B|-------||*-15-17-------------12-15-|----------10-12----------|-8-10---------5-|
G|-17-18-||--------------------------|-------------------------|----------------|
D|-------||--------------------------|-------------------------|----------------|
A|-------||*-------------------------|-------------------------|----------------|
E|-------||--------------------------|-------------------------|----------------|

                                                               1st time

E|---5-|-10-8-----3-8-7---|------3-6-5-------|-5-10-8-----------|-6-7-----0-----|
B|-8---|------3-5---------|----5-------4-5-7-|--------------5-8-|-----7-8---3---|
G|-----|----------------5-|--6---------------|--------4-5-7-----|-------------3-|
D|-----|------------------|------------------|------------------|---------------|
A|-----|------------------|------------------|------------------|---------------|
E|-----|------------------|------------------|------------------|---------------|

E|---|--------|---------------|-----------------|--------------------|----------|
B|---|--------|---------------|-5---------6-5---|---------5----------|--7-----7-|
G|-4-|-0------|-------5-----5-|---7---4-7-----3-|---5-7-8-----6-9b11-|------7---|
D|---|--------|---5-7---5-7---|-----6-----------|-7---------8--------|----9-----|
A|---|------6-|-7-------------|-----------------|--------------------|----------|
E|---|--------|---------------|-----------------|--------------------|----------|

E|--------|---------------------|-------------------------|----------------------|
B|-10-8-7-|------8-11/12------8-|-12-10-------10-13-12-10-|----------12-15-------|
G|--------|----9------------9---|----------11-------------|-------12-------12-14-|
D|--------|-10-----------11-----|-------12----------------|-13-14----------------|
A|--------|---------------------|-------------------------|----------------------|
E|--------|---------------------|-------------------------|----------------------|

                                 2nd time                         Intro lick is played under these fills

E|----|-12-13-14-----------------||-6-7-8-9-10-------|---1--0-||--------|-------|
B|-13-|----------15----12-13-14-*||------------------|---1--1-||--------|-------|
G|----|-------------14-----------||------------0-3-2-|-0-2--0-||--------|-------|
D|----|--------------------------||------------------|---3--2-||--------|---0-2-|
A|----|-------------------------*||------------------|--------||--------|-------|
E|----|--------------------------||------------------|--------||--------|-------|

E|-------------|-3------|-----------|-1-0-------------|------|----------|-------|
B|-------3-5-3-|--------|-----------|-----3-1-3-------|------|----------|-------|
G|-0-2/4-------|--------|-----------|-----------3-2-0-|------|----------|-------|
D|-------------|--------|-----------|-----------------|------|----------|-------|
A|-------------|--------|-----------|-----------------|------|----------|-2-3-4-|
E|-------------|--------|-----------|-----------------|------|----------|-------|

E|-----------|--------|--------|-------------|----------------||-------------0-|
B|-----------|--------|--------|-------------|----------------||---------3-0---|
G|-----------|--------|--------|-------------|----------------||-0-2-3-4-------|
D|---2-3-4-5-|--------|--------|-------------|----------2-----||---------------|
A|-5---------|--------|--------|-------------|--2-3-4-5---1-0-||---------------|
E|-----------|--------|--------|-------------|----------------||---------------|

E|---|-1-0-------------|-----------------|------------|-----------------|-------|
B|-3-|-----3-2-1-----1-|-----------------|------------|-----------------|-------|
G|---|-----------2-3---|-3-2-0---2-0-----|------3-2-0-|-----------------|-2-5-4-|
D|---|-----------------|-------2-----1-2-|------------|-----2-5-4-2-----|-------|
A|---|-----------------|-----------------|-3----------|-3-4---------3-4-|-------|
E|---|-----------------|-----------------|------------|-----------------|-------|

E|-----------|-----------------|-------|-------------------|---3-5-6-7-----|----|
B|---------1-|-2-1-2-6-5-3-----|-------|-------------0-----|-7---------8---|--4-|
G|-2---------|-------------3-2-|-0-----|-------0-2-3---7b9-|-------------7-|----|
D|---3-4-0---|-----------------|-------|-0-1-2-------------|---------------|----|
A|-----------|-----------------|-------|-------------------|---------------|----|
E|-----------|-----------------|-------|-------------------|---------------|----|

                              outro

E|---3-6-5-3-----|-----6-5-3-|------------------|-5-8-7-5-------3-|-------------|
B|-5---------4-5-|-----------|------5-8-7-5-----|---------6-7-----|-6-5-3-------|
G|---------------|-5---------|--5-6---------5-6-|-------------7---|-------6-5-3-|
D|---------------|-----------|------------------|-----------------|-------------|
A|---------------|-----------|------------------|-----------------|-------------|
E|---------------|-----------|------------------|-----------------|-------------|

E|-----|-----------------|-------15--15----|
B|-----|-----------------|-------15--15----|
G|-4---|-----------------|-------14--14b16-|
D|---5-|-----------0-----|-----------------|
A|-----|-5-0-1-2-3---1-0-|-----------------|
E|-----|-----------------|-3---------------|





Comments


Popular Dixie Dregs tabs & chords
Aftershock Tabs
Bash Tabs
Bloodsucking Leeches Tabs
Good Intentions Tabs
Great Spectacular Tabs
Holiday Tabs
Ice Cakes Tabs
Little Kids Tabs
Road Expense Tabs
Twiggs Approved Tabs


Song lyrics



↑ Back to top | Tablatures and chords are parodies/interpretations of the original songs. You may use it for private study, scholarship, research or language learning purposes only
© 2014 AZChords.com Contact us | Privacy policy | DMCA | Add/correct tabs | Request tabs | Top 50 tabs