>
 >
Odyssey

Odyssey Guitar Tabs

Dixie Dregs - Odyssey chords, tabs, tablatures, lyrics

Guitar lessons | Add/correct | Request | Top 50 tabs Artists:  A B C D E F G H I J K L M N O P Q R S T U V W X Y Z 0-9

Odyssey Guitar Tabs – Dixie Dregs

CD, Sheet music, Poster

Do you like Odyssey? Share with your friends now
Tabs
E|-13--12--8-----7-----------7----5-3-5-------|-5--------------5-----3-1-3-----|
B|------------6-------------------------5-3---|-------3--------------------3-1-|
G|-----------------9-7-7-6------5-----------5-|----2--3--5--4------3-----------|
D|-----------------9-7-5--------3-------------|----3--3--3---------1-----------|
A|-----------------------7------3-------------|-------------5------1-----------|
E|--------------------------------------------|--------------------------------|

E|----|------------------|--------------|-----5-7-5---5-7-|-10----|-----|------|
B|----|------------------|----------7-8-|-6-8-------8-----|-------|-----|------|
G|-3--|------------------|------7-9-----|-----------------|-------|-----|------|
D|----|---------7-9-7----|-9-11---------|-----------------|-------|-----|------|
A|----|--7-9-10-------10-|--------------|-----------------|-------|-2---|-3----|
E|----|------------------|--------------|-----------------|-------|-0---|-1----|

E|-----|-----|------------------|-------------|---------------|-------------|----|
B|-----|-----|------------------|-------------|---------------|-------------|----|
G|-----|-----|----4-------------|-5-----------|---------------|-------------|----|
D|-2---|-3---|----------2-4-2---|-------4-5-7-|-6-------------|-7-----------|--7-|
A|-0---|-1---|----2-3-5-------5-|-3-5-7-------|-------3-5-3---|-------5-7-8-|----|
E|-----|-----|------------------|-------------|-4-5-7-------7-|-5-7-8-------|-10-|

E|----|---------|--------------------|-------------|---------------|-----------|
B|----|---------|--------------------|-------------|---------------|-----------|
G|----|---------|--------------------|-------------|-6-------------|-7---------|
D|----|---------|------2-------------|-3-----2-3-5-|-------3-5-3---|-------5-7-|
A|----|-3-------|------------0-2-0---|---3-5-------|-4-5-7-------7-|-5-7-8-----|
E|----|-1-------|------0-2-3-------3-|-1-----------|---------------|-----------|

E|---|------|--------|-------------|------|---------------|-------------|-------|
B|---|------|--------|-------------|------|---------------|-------------|-------|
G|---|------|--------|-------------|------|---------------|-------------|-8-----|
D|-8-|------|--------|-------------|------|-4-------------|-5-----------|-------|
A|---|-9----|-10-----|--------2----|-3----|-------2-4-2---|-------4-5-7-|-6-7-9-|
E|---|-7----|--8-----|--------0----|-1----|-2-3-5-------5-|-3-5-7-------|-------|

E|---------|---------------|-----------------------|-------------|-------------|
B|---------|---------------|-----------------------|-------------|-------------|
G|---------|-9-------------|---------6-------------|-7-----------|-------------|
D|-5-7-5---|--------7-9-10-|---------------4-6-4---|-------6-7-9-|-8-----------|
A|-------9-|-7-9-10--------|---------4-5-7-------7-|-5-7-9-------|-------5-7-5-|
E|---------|---------------|-----------------------|-------------|-6-7-9-------|

E|---|---------------|---------------|-------------------------|---------------|
B|---|---------------|---------------|-------------------------|---------------|
G|---|---------------|---------------|-----------------------9-|-4-------------|
D|---|-9-------------|-6-------------|-------------7-6-7-------|-------2-4-2---|
A|---|--------7-9-10-|-------4-6-4---|-------------------6-7---|-2-4-6-------6-|
E|-9-|-7-9-10--------|-4-5-7-------7-|-----------5-------------|---------------|

E-|---------------|---------------|----------------|--------------------------|
B-|---------------|---------------|----------------|--------------------------|
G-|---------------|---------------|-------------11-|---------8----------------|
D-|---------4-5-7-|-8-------------|---9-8-9--------|----------------6-8-6-----|
A-|-3-5-6-7-------|-------6-8-6---|---------8-9----|---------6-8-10-------10--|
E-|---------------|-6-7-9-------9-|-7--------------|--------------------------|

E|------------------|---------------|------------------|------------------|----|
B|------------------|---------------|------------------|------------------|----|
G|------------------|-8-------9-----|-12------11-------|-9--------11------|----|
D|-----------8-9-11-|---------------|----9-10----------|------------------|----|
A|-7-9-10-11--------|---9-----------|------------12-11-|---10-------------|----|
E|------------------|-----6-7---7-8-|------------------|------7-8----8-10-|----|

E|------------------------|---------------------|-------------------|----------|
B|------------------------|---------------------|-------------------|----------|
G|-------12------14-------|-13---------14-------|-13-------14-------|-15-------|
D|----------9-10----10-12-|---------------------|-------------------|----------|
A|------------------------|----14---------15----|----14-------15----|----16----|
E|------------------------|-------12-0-------13-|-------12-------13-|-------14-|

E|------------|-------------------|---------------------------------------------|
B|------------|-------------------|---------------------------------------------|
G|---16-------|-15-------16-------|------------18-16-------19-16-------18-16----|
D|------------|-------------------|------------------18-16-------18-16-------18-|
A|------17----|----16-------17----|---------------------------------------------|
E|-0-------15-|-------14-------15-|---------------------------------------------|

E|----------|-------------------------------|----------------------------------|
B|----------|-------------------------------|----------------------------------|
G|----------|-------------------------------|----------------------------------|
D|-16-------|-11-9------12-9------11-9------|-----------------------------6-7--|
A|----19-17-|------11-9------11-9------11-9-|-9-7------11-7------9-7-11-9------|
E|----------|-------------------------------|-----10-7------10-7---------------|

E|------------------------------|-------------||-------------------------||----|
B|------------------------------|-------------||-------------------------||*---|
G|------6-4-----9-6-------------|-7------9----||-------------------------||----|
D|----------6-4-----7-6---6-----|-7------7----||-------------------------||----|
A|----------------------9---6---|-5------7----||-------------------------||*-4-|
E|----------------------------7-|--------0----||-------------------------||----|

E|-------0-----------0---------|---------0-----------0-------0-|----------0-----|
B|-0-------0---0-------0-----0-|---0-------0---0-------0-------|----0-------0---|
G|---1-----------1---------1---|-----0-----------0---------0---|------1---------|
D|-----2-----------2-----0-----|-------2-----------2-----0-----|--------2-------|
A|-----------4-----------------|-3-----------3-----------------|--4-----------4-|
E|-----------------------------|-------------------------------|----------------|

E|-------0---------|---------0-----------0---------|----------0-----------0-----|
B|-0-------0-----0-|---0-------0---0-------0-----0-|----0-------0---0-------0---|
G|---1---------1---|-----0-----------0-------------|------2-----------2---------|
D|-----2-----0-----|-------2-----------2-------2---|--------2-----------2-------|
A|-----------------|-3-----------3-----------4-----|--0-----------0-----------2-|
E|-----------------|-------------------------------|----------------------------|

                                                                        X3

E|-----|---------0-----------0-------0-|----------0-----------0----------||----|
B|---0-|---0-------0---0-------0-------|----0-------0---0-------0-----0-*||----|
G|-----|-----1-----------2-------------|------1-----------2---------1----||----|
D|-2---|-------2-----2-----2-------2---|--------2-----2-----2-----0------||-6--|
A|-----|-------------------------2-----|--------------------------------*||-4--|
E|-----|-0-----------------------------|--0------------------------------||----|

E|-0-----0-----0-----0-----|---0-----0-----0-----0-----|------0-----0-----0-----|
B|---0-----0-----0---------|-----0-----0-----0-----0---|--------0-----0-----0---|
G|-----6-----6-----6-------|-------4-----4-----4-------|----------6-----6-----6-|
D|----------------------6--|-6-----------------------6-|---6--------------------|
A|----------------------5--|-3-----------------------5-|---4--------------------|
E|-------------------------|---------------------------|------------------------|

E|-0----|----0-----0-----0-----0-----|---------0-----------0------|-------------|
B|------|------0-----0-----0-----0---|---0-------0---0-------0----|------0------|
G|------|--------4-----4-----4-------|-----2-------2---2----------|--------1----|
D|---6--|-6------------------------6-|-2-----2-----------2--------|----------2--|
A|---5--|-3------------------------4-|-0--------------------------|-------------|
E|------|----------------------------|-------------------------7-|----0---------|

E|-0-----------0---------|---------0-----------0-||-2--7---9--|--7---7/-9--|---|
B|---0---0-------0-----0-|---0-------0---0-------||-3--7--10--|--8---8/10--|---|
G|---------2-------------|-----1-----------2-----||-2--7---9--|--7---7/-9--|---|
D|-----2-----2-------2---|-------2-----2-----2---||-4--9--12--|-10--10/12--|---|
A|-----------------2-----|-----------------------||-2--7---9--|--7---7/-9--|---|
E|-----------------------|-0---------------------||-----------|------------|---|

E|------5--7--10--|----11--|-8--6--6--|--4-----|-4--0--2---|-2-4-4--7-|--------|
B|------5--5---8--|-----9--|-6--6--4--|--4-----|-4--0--2---|-3-3-5--5-|--------|
G|------5--5---8--|-----8--|-6--6--4--|--4-----|-4--2--2---|-2-2-4--4-|--------|
D|------5--5---8--|----10--|-6--6--4--|--4-----|-6--2--4---|-4-4-6--6-|--------|
A|------3---------|--------|----------|--------|-7--0--5---|-2-2-4--4-|--------|
E|----------------|--------|----------|--------|-----------|----------|--------|

E|-7-9--9--14--|-12--12--12-|--------------|---------0-----------0---------|---|
B|-7-7-10--10--|-12--12--12-|--------------|---0-------0---0-------0-----0-|---|
G|-7-7--9---9--|--9--10---9-|--------------|-----1-----------1---------1---|---|
D|-5-5-11--11--|-----10---9-|--------------|-------2-----------2-----0-----|---|
A|------9---9--|-10---8---7-|--------------|-4-----------4-----------------|-3-|
E|-------------|--8---------|--------------|-------------------------------|---|

E|-------0-----------0-------0-|----------0-----------0---------|---------0-----|
B|-0-------0---0-------0-------|----0-------0---0-------0-----0-|---0-------0---|
G|---0-----------0---------0---|------1-----------1---------1---|-----0---------|
D|-----2-----------2-----0-----|--------2-----------2-----0-----|-------2-------|
A|-----------3-----------------|--4-----------4-----------------|-3-----------3-|
E|-----------------------------|--------------------------------|---------------|

E|-------0---------|----------0-----------0---------|---------0-----------0-----|
B|-0-------0-----0-|----0-------0---0-------0-----0-|---0-------0---0-------0---|
G|---0-------------|------2-----------2-------------|-----1-----------2---------|
D|-----2-------2---|--------2-----------2-------2---|-------2-----2-----2-------|
A|-----------4-----|--0-----------0-----------2-----|-------------------------2-|
E|-----------------|--------------------------------|-0-------------------------|

E|---0-|----------0-----------0---------|----0-----0-----0-----0-----|---0-----|
B|-----|----0-------0---0-------0-----0-|------0-----0-----0---------|-----0---|
G|-----|------1-----------2---------1---|--------6-----6-----6-------|-------4-|
D|-2---|--------2-----2-----2-----0-----|-6-----------------------6--|-6-------|
A|-----|--------------------------------|-4-----------------------5--|-3-------|
E|-----|--0-----------------------------|----------------------------|---------|

E|-0-----0-----0-----|------0-----0-----0-----0----|----0-----0-----0-----0-----|
B|---0-----0-----0---|--------0-----0-----0--------|------0-----0-----0-----0---|
G|-----4-----4-------|----------6-----6-----6------|--------4-----4-----4-------|
D|-----------------6-|---6----------------------6--|-6------------------------6-|
A|-----------------5-|---4----------------------5--|-3------------------------4-|
E|-------------------|-----------------------------|----------------------------|

E-|---------0-----------0------|------------0-----------0---------|---------0----|
B-|---0-------0---0-------0----|------0-------0---0-------0-----0-|---0-------0--|
G-|-----2-------2---2----------|--------1-----------2-------------|-----1--------|
D-|-2-----2-----------2--------|----------2-----2-----2-------2---|-------2------|
A-|-0--------------------------|----------------------------2-----|--------------|
E-|-------------------------7-|----0-----------------------------|-0-------------|

E|---------0-||-2--7---9--|--7---7/-9--|--------5--7--10--|----11--|-8--6--6---|
B|---0-------||-3--7--10--|--8---8/10--|--------5--5---8--|-----9--|-6--6--4---|
G|-----2-----||-2--7---9--|--7---7/-9--|--------5--5---8--|-----8--|-6--6--4---|
D|-2-----2---||-4--9--12--|-10--10/12--|--------5--5---8--|----10--|-6--6--4---|
A|-----------||-2--7---9--|--7---7/-9--|--------3---------|--------|-----------|
E|-----------||-----------|------------|------------------|--------|-----------|

E|--4-----|-4--0--2---|-2-4-4--7-|--------7-9--9--14--|-12--12--12-|---0-------|
B|--4-----|-4--0--2---|-3-3-5--5-|--------7-7-10--10--|-12--12--12-|---5-------|
G|--4-----|-4--2--2---|-2-2-4--4-|--------7-7--9---9--|--9--10---9-|---6-------|
D|--4-----|-6--2--4---|-4-4-6--6-|--------5-5-11--11--|-----10---9-|---7-------|
A|--------|-7--0--5---|-2-2-4--4-|-------------9---9--|-10---8---7-|---0-0-0-0-|
E|--------|-----------|----------|--------------------|--8---------|-----------|

E|-0-----0---|----0--------0----0---|-0---------------|-0-0-0-0-0-0-|-0-------0-|
B|-7-----9---|---10-------12---14---|-5---------------|-6-5-6-5-6-5-|-7-------9-|
G|-7-----9---|---11-------13---14---|-6---------------|-7-6-7-6-7-6-|-7-------9-|
D|-----------|----------------------|-7---------------|-8-7-8-7-8-7-|-0-0-0-0-0-|
A|---0-0---0-|-0----0-0-0----0----0-|-0-0-0-0-0-0-0-0-|-0-0-0-0-0-0-|-----------|
E|-----------|----------------------|-----------------|-------------|-----------|

E|--------0-----|----0--------0------0-----|--0--------------|--0--0--0--0--0--0-|
B|-------10-----|---12-------14-----15-----|-12--------------|-13-12-13-12-13-12-|
G|-------11-----|---13-------14-----16-----|-13--------------|-14-13-14-13-14-13-|
D|-0-0-0--0-0-0-|-0--0-0-0-0--0-0-0--0-0-0-|-14--------------|-15-14-15-14-15-14-|
A|--------------|--------------------------|-14--------------|-15-14-15-14-15-14-|
E|--------------|--------------------------|--0--0-0-0-0-0-0-|--0--0--0--0--0--0-|

E|--|-7-7-7-7--9--9--9--9-10-10-10-|-10--9--9--9--9-14--12-|-7-|--9-7-9-7-9-7--|
B|--|-0-0-0-0--0--0--0--0--0--0--0-|--0--0--0--0--0--0---0-|-0-|---------------|
G|--|-7-7-7-7--9--9--9--9-11-11-11-|-11--9--9--9--9-14--13-|-7-|--9-7-9-7-9-7--|
D|--|-9-9-9-9-11-11-11-11-12-12-12-|-12-11-11-11-11-16--14-|-9-|--0-0-0-0-0-0--|
A|--|-9-9-9-9-11-11-11-11-12-12-12-|-12-11-11-11-11-16--14-|-9-|---------------|
E|--|------------------------------|-----------------------|---|---------------|

E|-7--7-7-7--7--7-7-7--7--7-7-|-7--7-7-7-7-7--7-7-10--10-10-|---9---9--9--9--9-|
B|-7--7-7-7--5--5-5-5--3--3-3-|-3--5-5-5-5-7--7-7-12--12-12-|--10--10-10-10-10-|
G|-0--0-0-0--0--0-0-0--0--0-0-|-0--0-0-0-0-0--0-0--0---0--0-|---9---9--9--9--9-|
D|----------------------------|-----------------------------|--11--11-11-11-11-|
A|----------------------------|-----------------------------|---9---9--9--9--9-|
E|----------------------------|-----------------------------|------------------|

E|--9--9-|-------------|-0-------0------0----|----0--------0----0---|--0-------|
B|-10-10-|-6-6-6-6-6-6-|-5-------7------9----|---10-------12---14---|--5-------|
G|--9--9-|-6-6-6-6-6-6-|-6-------7------9----|---11-------13---14---|--6-------|
D|-11-11-|-7-7-7-7-7-7-|-7-------------------|----------------------|--7-------|
A|--9--9-|-8-8-8-8-8-8-|-0-0-0-0----0-0----0-|-0----0-0-0----0----0-|--0-0-0-0-|
E|-------|-------------|---------------------|----------------------|----------|

E|---------|-0-0-0-0-0-0-|--0-------0--------0-----|----0------0------0-----|--|
B|---------|-6-5-6-5-6-5-|--7-------9-------10-----|---12-----14-----15-----|--|
G|---------|-7-6-7-6-7-6-|--7-------9-------11-----|---13-----14-----16-----|--|
D|---------|-8-7-8-7-8-7-|--0-0-0-0-0-0-0-0--0-0-0-|-0--0-0-0--0-0-0--0-0-0-|--|
A|-0-0-0-0-|-0-0-0-0-0-0-|-------------------------|------------------------|--|
E|---------|-------------|-------------------------|------------------------|--|

E|--0-------------|--9--9--9--9--7-7-|-7-7-7-7---9---9--9--9--10--10-10-|-10--9-|
B|-12-------------|-10-10-10-10--0-0-|-8-8-8-8--10--10-10-10--10--10-10-|-10-10-|
G|-13-------------|-11-11-11-11--7-7-|-0-0-0-0---0---0--0--0--11--11-11-|-11--9-|
D|-14-------------|-11-11-11-11--9-9-|-0-0-0-0---0---0--0--0---0---0--0-|--0--0-|
A|-14-------------|--9--9--9--9--9-9-|----------------------------------|-------|
E|--0-0-0-0-0-0-0-|------------------|----------------------------------|-------|

E|--9--9--9-14--12--|---0--------------------|-------------------|-------------|
B|-10-10-10-10--10--|--12--------------------|--9--9--9--9--9--9-|-10-10-10-10-|
G|--9--9--9-11---9--|--13--------------------|--9--9--9--9--9--9-|-11-11-11-11-|
D|--0--0--0-12--11--|--14--14-14-14-14-14-14-|-11-11-11-11-11-11-|--9--9-11-11-|
A|------------------|--14--14-14-14-14-14-14-|-11-11-11-11-11-11-|--9--9--9--9-|
E|------------------|---0---0--0--0--0--0--0-|--9--9--9--9--9--9-|-------------|

E|-7-7-7-7----------|-----------------15--13-||------------------|-------------|
B|-0-0-0-0-12-12-12-|-12-10-10-10-10--13--11-||------------------|-------------|
G|-7-7-7-7--9--9--9-|--9--7--7--7--7--12--10-||------------------|-------------|
D|-9-9-9-9--9--9--9-|--9--7--7--7--7--14--12-||------7-----8-----|-7-----5-----|
A|-9-9-9-9-11-11-11-|-11--9--9--9--9---------||----7-----8-----7-|-----5-----3-|
E|------------------|------------------------||--5-----6-----5---|---3-----1---|

E|-----|-----------------|-----------------|-----------------|-----------------|
B|-----|-----------------|-----------------|-----------------|-----------------|
G|-----|-----------------|-----------------|-----------------|-----------------|
D|-----|-----7-----8-----|-7-----5---------|-----7-----8-----|-7-----5---------|
A|---2-|---7-----8-----7-|-----5-----3---2-|---7-----8-----7-|-----5-----3---2-|
E|-0---|-5-----6-----5---|---3-----1---0---|-5-----6-----5---|---3-----1---0---|

E-|-----------------|-----------------|---------||----||-------------|---------|
B-|-----------------|-----------------|---------||----||*------------|---------|
G-|-----------------|-----------------|---------||----||-------------|---------|
D-|-----7-----8-----|-7-----5---------|-----3---||----||----5-3-5----|-5-3-5---|
A-|---7-----8-----7-|-----5-----3---2-|---3---3-||----||*------------|---------|
E-|-5-----6-----5---|---3-----1---0---|-1-------||----||--3--------3-|-------1-|

       *3

E|--------||-----------|--------|-----------------|-----------------|---------------|
B|-------*||-----------|--------|-----------------|-----------------|----8-8--10b12-|
G|--------||-----------|--------|-----------------|-----------------|---------------|
D|---3----||---5-3-5---|-5-3-5--|---5---6---5---6-|---7---6---7---8-|---------------|
A|-3---3-*||-----------|--------|-----------------|-----------------|---------------|
E|--------||-3-------3-|--------|-3---4---3---4---|-5---4---5---6---|---------------|

E|-----|---------------|--------------------|-----------------|-----------------|
B|-----|-8-8-----------|--------------------|-----------------|-----------------|
G|-----|-----9-9-8-7-7-|-5-6-7-7b9--7b9---5-|-----------------|---------5--5b6--|
D|---9-|---------------|--------------------|-7-7-75--------|-------7-----------|
A|-----|---------------|--------------------|-----------------|-5-6-7-----------|
E|-----|---------------|--------------------|-----------5-6-7-|-----------------|

E|-------|---------------|-------------------|------------------------|---------|
B|-------|---------------|-------------------|-8-10-10~/---20--11b13-|-----11---|
G|--5b6--|--2-----2---4--|-5-4-4-7-5-8-7-9-8-|------------------------|---------|
D|-------|----5-2---5----|-------------------|------------------------|---------|
A|-------|---------------|-------------------|------------------------|---------|
E|-------|---------------|-------------------|------------------------|---------|

E|---|-----------------------------|-----------------|-----------|--------------|
B|---|-------------8---------3-----|-----------------|-----------|--------------|
G|-9-|---------------75-3-5---3-4-|---------------2-|-----------|---------------|
D|---|-----------------------------|-5-----------3---|-5-5--5--5-|--------------|
A|---|-----------------------------|---5-4-3-2-5-----|-----------|--3-1-3-1-2---|
E|---|-----------------------------|-----------------|-----------|--------------|

E|------|----------------------|------------------|-----------------|--------|--|
B|------|----------------------|------------------|-----------------|--------|--|
G|------|----------------------|----------------4-|-4-5-5-5-5-5-5-5-|--5-4---|--|
D|------|---------------5-7b9--|---7-7-5-----5----|-----------------|------5|---|
A|------|-----2-3-5-6-7--------|---------7-5------|-----------------|--------|--|
E|-3-1--|-3-5------------------|------------------|-----------------|--------|--|

E|------|--20--20-20p17----|-17------17----|-------------------------------|----|
B|------|---------------17-|----20------20-|-----17------------------------|----|
G|------|------------------|---------------|--------20-19-17-19b21--19b21--|-17-|
D|------|------------------|---------------|-------------------------------|----|
A|------|------------------|---------------|-------------------------------|----|
E|------|------------------|---------------|-------------------------------|----|

E|--------------------------------|-------------------|--------------------------|
B|--------------------------------|-------------------|--------------------------|
G|-----------17-------------------|-------------------|-------------------12b14--|
D|--19-17-19----19-17-------------|-------------------|----------12-13-14--------|
A|--------------------19-17-15----|-------------------|-12-14-15-----------------|
E|-----------------------------17-|-17------12-14-15-|---------------------------|

E|--------|--------------------------|-------------------------------------------|
B|--------|--------------------------|-------------------------------------------|
G|--14-12-|--------------------------|-------------------------------------12-14-|
D|--------|------14-13-12------------|-------------12-13-14-14-------------------|
A|--------|---------------15-12-15---|-------------------------12-13-14-14-------|
E|--------|--------------------------|-12-13-14-15-------------------------------|

E-|-------------------------|--------------|-------------------------------------|
B-|----------------------12-|----------12--|-------------12-15----13----12-------|
G-|-12-14-14-13-14-13-14----|-14-12-14-----|----------14-------------------14b16-|
D-|-------------------------|--------------|-------------------12----12----------|
A-|-------------------------|--------------|-------------------------------------|
E-|-------------------------|--------------|-------------------------------------|

E|---|-----------------------12-15b17-|-----15-14-|-13-12-13-12----------12h13p-|
B|---|--------------------13----------|-----------|-------------15-14-15--------|
G|--r|--12-------------14-------------|-----------|-----------------------------|
D|---|-----15-12-12-15----------------|-----------|-----------------------------|
A|---|--------------------------------|-----------|-----------------------------|
E|---|--------------------------------|-----------|-----------------------------|

E-|-12----12h13p12--12h13p12----|-------------------------|----------------------|
B-|----15--------------------15-|-14-13-15----12----------|----------------------|
G-|-----------------------------|----------15----12-------|-12-------------------|
D-|-----------------------------|-------------------14-12-|----12-12----12----12-|
A-|-----------------------------|-------------------------|----------16----15----|
E-|-----------------------------|-------------------------|----------------------|

E|-------|-----------------------|--------------------------------|--------------|
B|-------|-----------------------|--------------------------------|--------------|
G|-------|-----------------------|--------------------------------|--------------|
D|-------|-----------------------|----------12--------------------|-13-----------|
A|-13-14-|-----------------------|-12-13-14--------------12-14-15-|--------------|
E|-------|-15-13b15~----12-13-15-|--------------13-15-16----------|-----14-15-17-|

E-||-||------------------|-----------------|-----------------|-----------------|
B-||-||*-----------------|-----------------|-----------------|-----------------|
G-||-||------------------|-----------------|-----------------|-----------------|
D-||-||------7-----8-----|-7-----5---------|-----7-----8-----|-7-----5---------|
A-||-||*---7-----8-----7-|-----5-----3---2-|---7-----8-----7-|-----5-----3---2-|
E-||-||--5-----6-----5---|---3-----1---0---|-5-----6-----5---|---3-----1---0---|

E-|-----------------|-----------------|-----------------|-----------------|-----|
B-|-----------------|-----------------|-----------------|-----------------|-----|
G-|-----------------|-----------------|-----------------|-----------------|-----|
D-|-----7-----8-----|-7-----5---------|-----7-----8-----|-7-----5---------|-----|
A-|---7-----8-----7-|-----5-----3---2-|---7-----8-----7-|-----5-----3---2-|---3-|
E-|-5-----6-----5---|---3-----1---0---|-5-----6-----5---|---3-----1---0---|-1---|

E|-----||---------------|--------------------------|---------------------------|
B|-----||---------------|--------------------------|---------------------------|
G|-----||---------------|--------------------------|---------------------------|
D|-3---||------5-3-5----|-5-3-5-----3-----5-3-5----|-5-3-5-----3------5-3-5----|
A|---3-||---------------|---------3---3------------|---------3---3-------------|
E|-----||----3--------3-|-------1-------3--------3-|-------1--------3--------3-|

E-|----------------------------|--------|-----------------|------------------|-|
B-|----------------------------|--------|-----------------|-----------------*|-|
G-|----------------------------|--------|-----------------|------------------|-|
D-|-5-3-5-----3--------5-3-5---|-5-3-5--|---5---6---5---6-|---7---6---7---8--|-|
A-|---------3---3--------------|--------|-----------------|-----------------*|-|
E-|-------1----------3-------3-|--------|-3---4---3---4---|-5---4---5---6----|-|

E--------------------------|-------------------5-8-|---|--|---------------------|
B--------------------------|-5---5-6-5-6-8-6-8-----|---|--|-------------5---5-6-|
G--------------5---5-7-5-7-|---7-------------------|---|--|-5---5-7-5-7---7-----|
D--7-5-7-9-7-9---9---------|-----------------------|---|--|---9-----------------|
A--------------------------|-----------------------|---|--|---------------------|
E--------------------------|-----------------------|---|--|---------------------|

E|-----|-------5---5-7-5-7-8/12-|----|---|--------|-----------|---------|------|
B|-5-6-|-8-6-8---8--------------|----|---|------5-|-3----3----|-------5-|-3----|
G|-----|------------------------|----|---|----2---|-0--5-0----|-----2---|-0--5-|
D|-----|------------------------|----|---|-3------|----3------|--3------|----3-|
A|-----|------------------------|----|---|--------|---------5-|---------|------|
E|-----|------------------------|----|---|--------|---------3-|---------|------|

E|------|------------|------------|---------|-----------|----|-----------------|
B|-3----|----------5-|-3----3-----|-------5-|-3----3----|----|-----------------|
G|-0----|--------2---|-0--5-0-----|-----2---|-0--5-0----|----|-----------------|
D|------|-----3------|----3-------|--3------|----3------|----|---5---6---5---6-|
A|----5-|------------|---------5--|---------|---------5-|----|-----------------|
E|----3-|------------|---------3--|---------|---------3-|----|-3---4---3---4---|

E-|------------------|--------|---|-----------------|------------------|------|
B-|------------------|--------|---|-----------------|------------------|------|
G-|------------------|--------|---|-----------------|------------------|------|
D-|----7---6---7---8-|--------|---|---7---8---7---8-|---9---8---9---10-|------|
A-|------------------|--------|---|-----------------|------------------|------|
E-|--5---4---5---6---|-5------|---|-5---6---5---6---|-7---6---7---8----|-7----|

E|-----|-------------------|-----------------|--------|-----------------|-------|
B|-----|-------------------|-----------------|--------|-----------------|-------|
G|-----|-----4---5---4---5-|---6---5---6---7-|--------|---6---7---6---7-|---8---|
D|-----|-------------------|-----------------|--------|-----------------|-------|
A|-----|---2---3---2---3---|-4---3---4---5---|-4------|-4---5---4---5---|-6---5-|
E|-----|-------------------|-----------------|--------|-----------------|-------|

E|-----------|--------------------12-|-11-10-------------|-----------------|---|
B|-----------|-----------------------|-------------------|-----------------|---|
G|-7---8---9-|--------8-7-8-9-8-7----|-------9-8-7-------|-----------------|---|
D|-----------|-----------------------|-------------2-1-0-|---2---2---2---2-|---|
A|---6---7---|------6----------------|-------------------|-----------------|---|
E|-----------|-----------------------|-------------------|-0---1---0---1---|-2-|

E|---------------|-----------------|--------------------|-----------------|-----|
B|---------------|-----------------|--------------------|-----------------|-----|
G|---------------|-----------------|--------------7---8-|---9---9---9---9-|---9-|
D|-2---2---2---2-|---2---2---2---2-|------2---2---------|-----------------|-----|
A|---------------|-------------0---|----1---2---5---6---|-7---8---7---8---|-9---|
E|---1---2---3---|-4---3---4-------|--------------------|-----------------|-----|

E|--------------|------------------|-------------------|----------------------|
B|--------------|------------------|-------------------|----------------------|
G|---9---9----9-|---9----9---9---9-|---9---9----9----9-|------9---9---9----9--|
D|--------------|-6--------6---7---|-8---9---12---13---|----------------------|
A|-8---9---10---|-----10-----------|-------------------|----7---8---9---10----|
E|--------------|------------------|-------------------|----------------------|

E|------------------|-------------------|-----------------|----------|-|
B|------------------|-------------------|-----------------|----------|-|
G|---9----9---9---9-|---9---9----9----9-|---9---7---5---4-|----------|-|
D|-6--------6---7---|-8---9---12---13---|-----------------|-7-5-3-2--|-|
A|-----10-----------|-------------------|-7---5---3---2---|----------|-|
E|------------------|-------------------|-----------------|-5-3-1-0--|-|





Comments


Popular Dixie Dregs tabs & chords
Aftershock Tabs
Bash Tabs
Cruise Control Tabs
Good Intentions Tabs
Great Spectacular Tabs
Ice Cakes Tabs
Leprechuan Promenade Tabs
Pride O The Farm Tabs
Punk Sandwich Tabs
Road Expense Tabs


Song lyrics



↑ Back to top | Tablatures and chords are parodies/interpretations of the original songs. You may use it for private study, scholarship, research or language learning purposes only
© 2014 AZChords.com Contact us | Privacy policy | DMCA | Add/correct tabs | Request tabs | Top 50 tabs