>
 >
Little Kids

Little Kids Guitar Tabs

Dixie Dregs - Little Kids chords, tabs, tablatures, lyrics

Guitar lessons | Add/correct | Request | Top 50 tabs Artists:  A B C D E F G H I J K L M N O P Q R S T U V W X Y Z 0-9

Little Kids Guitar Tabs – Dixie Dregs

CD, Sheet music, Poster

Do you like Little Kids? Share with your friends now
Tabs
E|--------------|-------------|-------------|--------------||-0---------|
B|--0---------0-|-0---------0-|-4-5-4-2-4-2-|-0-2-0-------*||---3-2-2-3-|
G|----2-1-1-2---|---2-1-1-2---|-------------|-------2-4-2--||-----------|
D|--------------|-------------|-------------|-------0------||-----------|
A|--------------|-------------|-------0-----|-------------*||-0---------|
E|--0-----------|-0-----------|-0-----------|-0------------||-----------|

E|-0-|-0---------0-|-2-0---5-2-0-|-2-0---0-----|-------------|---------|
B|---|---3-2-2-3---|-----3-------|-----3---3-2-|-0---------0-|-0-------|
G|---|-------------|-------------|-------------|---2-1-1-2---|---2-1-1-|
D|---|-------------|-0-----------|-0-----0-----|-------------|---------|
A|---|-0-----------|-------0-----|-------------|-------------|---------|
E|---|-------------|-------------|-------------|-0-----------|-0-------|

E|-----|-------------|-------------|-2-0---5-2-0-|-3-0-3-2---|---------|
B|---0-|-4-5-4-2-4-2-|-0-2-0-------|-----3-------|-------2---|-0-2-3-2-|
G|-2---|-------------|-------2-4-2-|-------------|-------3---|---------|
D|-----|-------------|-------0-----|-0-----------|-----------|---------|
A|-----|-------0-----|-------------|-------------|-----------|-2-----0-|
E|-----|-0-----------|-0-----------|-------------|-3-----2---|---------|

E|---0-|-3---3-2---|-2-0---5-2---|-------------|-3-2-3-------|-----0---|
B|-3---|---3---2---|-----3-----3-|---0-2---2-3-|-------0-2-3-|-2-3---3-|
G|-----|-------3---|-------------|-2-----4-----|-------------|---------|
D|-----|-----------|-0-----------|-4-----5-----|-------------|-2-------|
A|-----|-----------|-------------|-------------|-------------|-------0-|
E|-----|-3-----2---|-------------|-------------|-0-----------|---------|

E|-0-2-|-2-0-2-------|-------3-2-0-|-2-0---------|---------0--|--------|
B|-----|-------------|-0-2-3-------|-----3-2-3-2-|-0----------|-2--3---|
G|-----|-------2-1-2-|-------------|-------------|------------|-2--2---|
D|-----|-0-----------|-------------|-------------|------------|----0---|
A|-----|-------------|-------------|-2-----0-----|------------|-0------|
E|-----|-------------|-3-----0-----|-------------|---3-2-0----|--------|

E|-7-5-4-5-4-0-|-2-0-------3-|-2---------|-------------|-7-5-4-5-4-0--|
B|-------------|-----3---0---|-3---------|-------------|--------------|
G|-------------|-------0-----|-2---------|-------------|--------------|
D|-------------|-0-----------|-0---------|-------------|--------------|
A|-------0-----|-------------|-----2-4-2-|-0-2-0-------|-------0------|
E|-0-----------|-------------|-----------|-------0-2-0-|-0------------|

E|-2-0-------3-|-2---3---|-0--0-----|-----0-2-0---|-------------|-------|
B|-----3---0---|-3---5---|-2--2--3--|-0-3-------3-|---0-2-3-2-0-|-----0-|
G|-------0-----|-2---4---|-0--0-----|-------------|-2-----------|-0-2---|
D|-------------|-0---5---|-2--2-----|-------0-----|-------------|-------|
A|-0-----------|---------|-4--4-----|-------------|-------2-----|-------|
E|-------------|---------|-------3--|-3-----------|-2-----------|-0-----|

E|-------|---------10-------|-----0-2-0---|---------------|-------------|
B|---0-2-|------10----10----|-0-3-------3-|---0-2-3-2-2-0-|-----0---0-2-|
G|-2-----|---11----------11-|-------------|-2-------------|-1-2---2-----|
D|-------|-0----------------|-------0-----|---------------|-------------|
A|-0-----|------------------|-------------|-------2-------|-------0-----|
E|-------|------------------|-0-----------|-2-------------|-0-----------|

E-|---------10-------|---------10-------|-------------|-7-5-4-4-5-7-|-7-|
B-|------10----10----|------11----11----|-0---------0-|-------------|-9-|
G-|---11----------11-|---12----------12-|---2-1-1-2---|-------------|-9-|
D-|-0----------------|-0----------------|-------------|-------------|-0-|
A-|------------------|------------------|-------------|-------------|---|
E-|------------------|------------------|-0-----------|-0-----------|---|

E|--5--|-4--4--|-------------|-7-5-4-4-5-7-|-------------|-------------|
B|--7--|-5--4--|-0---------0-|-------------|-4-5-4-2-4-2-|-0-2-0---0---|
G|--6--|-4--4--|---2-1-1-2---|-------------|-------------|-------2---2-|
D|--7--|-2-----|-------------|-------------|-------------|-------------|
A|--0--|----2--|-------------|-------------|-------0-----|-------0-----|
E|-----|-------|-0-----------|-0-----------|-0-----------|-0-----------|

E-|-0---------0-|-9-7-5-5-7-9-|-2-0---5-2-0-|-2-0---0-----|-------------|
B-|---3-2-2-3---|-------------|-----3-------|-----3---3-2-|-0---------0-|
G-|-------------|-------------|-------------|-------------|---2-1-1-2---|
D-|-------------|-------------|-0-----------|-0-----------|-------------|
A-|-0-----------|-0-----------|-------0-----|-------0-----|-------------|
E-|-------------|-------------|-------------|-------------|-0-----------|

E-|-7-5-4-4-5-7-|-11-12-11-9-11-9-|-7-9-7-5-7-5-|-2-0---5-2---|-3-0---7-|
B-|-------------|-----------------|-------------|-----3-----3-|-----2---|
G-|-------------|-----------------|-------------|-------------|---------|
D-|-------------|-----------------|-------4-----|-0-----------|-2-------|
A-|-------------|----------0------|-7-----------|-------------|---------|
E-|-0-----------|--0--------------|-------------|-------------|---------|

E|-3-0-|-5-----------|---------|-----------0-|-2-0---------|-------0---|
B|-----|-----2-3-2-0-|---------|-----3-0-3---|-----3---0-2-|-3-2-0-2---|
G|-----|-------------|-2-------|-------------|-------2-----|-------2---|
D|-----|-------------|---------|-------------|-0-----------|-------2---|
A|-----|-------------|----0-0--|-0-----------|-------------|-2---------|
E|-----|-0-----------|---------|---2-3-3-----|-------0-----|-----------|

                    Bar 68

E-|-2------|-0------|------------|-------------|-------------|-4-2-4-5-|
B-|-3---3--|-2------|------------|---0-2-------|---0-2-0-2-3-|---------|
G-|-2---4--|-2------|------------|-2-----0-2-4-|-3-----------|---------|
D-|-0---4--|-2--0-0-|-2-4-5----4-|-------------|-------------|-2-------|
A-|-----2--|--------|-4-----2----|-0-----------|-------2-----|-------0-|
E-|--------|--------|------------|-------3-----|-0-----------|---------|

E-|-10-9-7-6-7-9-|---0-2-5-3-2-|-7-5-3-2-3-2-0-|----2--|-4--5--|-4--2--|
B-|--------------|-3-----------|---------------|-3--3--|-5--7--|-5--3--|
G-|--0-----------|-0-----------|-0-------------|-------|-------|-------|
D-|--------------|-------0-----|---------------|-0-----|-------|-------|
A-|--------------|-------------|-------0-------|-------|-------|-------|
E-|--------------|-------------|---------------|-------|-------|-------|

E-|-2-----|----------|-------------|-----------|-------------|---------|
B-|----3--|-2--------|-------------|-----------|-------------|---------|
G-|-2-----|-2--------|-------------|-2--0------|-------------|---------|
D-|----4--|-2--------|-------------|-------4-2-|-0-2-4-2-0---|-0-------|
A-|-------|--------2-|-0-2-4-5-4-5-|-----------|-----------4-|---------|
E-|-------|----3-5---|-------------|-----------|-------------|---------|

E|-2--4--|-7--4--|-2---2--|----0--|-3--0--|-2--0--|-3--2--|-0---2--|---|
B|-3--5--|-7--5--|-3------|-3--2--|-0--2--|-3--2--|-0--3--|-2---3--|---|
G|-------|-------|-----2--|----2--|-0--2--|-2--2--|-0--2--|-2---2--|---|
D|-0-----|-------|--------|-4--2--|-0--2--|-0--2--|-0--0--|-2---0--|-0-|
A|-------|-------|--------|-------|-2--0--|----0--|-2-----|-0------|---|
E|-------|-------|--------|-------|-3-----|-------|-3-----|--------|---|

E|-4--7-|-2----0-2--|-0-----|----7-9-10-|-9-7-5-3---|-10---7-5-3-|---2-|
B|-5--7-|-3--3---3--|-2--3--|-2---------|-----------|------------|-----|
G|------|--------2--|-2--2--|-2--0------|-----------|------0-----|-----|
D|------|-0------0--|-2--4--|-2---------|-------0---|------------|-----|
A|------|------0----|-------|-----------|-0---------|--0---------|-0---|
E|------|-----------|-------|-----------|-----------|------------|-----|

E|-3-2-0-2-0-0-|----2-|-5--4--|-2--2--|-------|-3-------3-5-----0-5-|-5-|
B|-------------|-3--3-|-7--5--|-3-----|-3--2--|-----0-3-------2-----|---|
G|-----0-------|------|-------|----2--|----2--|---0---------2-------|---|
D|-------------|-0----|-------|-------|-4--2--|---------------------|---|
A|-------------|------|-------|-------|-------|---------------------|---|
E|-------------|------|-------|-------|-------|---------------------|---|

E|-----5-------5-|-7-------|-------|-------------|-------------|-------|
B|---7-------7---|-4---2---|----0--|-0---------0-|-0---------0-|-4-5-4-|
G|-7-------7-----|-4---2---|-0--2--|---2-1-1-2---|---2-1-1-2---|-------|
D|-------7-------|-4---2---|-2--1--|-------------|-------------|-------|
A|---------------|-----0---|-------|-------------|-------------|-------|
E|---------------|---------|-3--2--|-0-----------|-0-----------|-0-----|

E|-------|-------------|-------------|-7-5-4-4-5-7-|-------------|-----|
B|-2-4-2-|-0-2-0-------|-0---------0-|-------------|-4-5-4-2-4-2-|-0-2-|
G|-------|-------2-4-2-|---2-1-1-2---|-------------|-------------|-----|
D|-------|-------0-----|-------------|-------------|-------------|-----|
A|-0-----|-------------|-------------|-------------|-------0-----|-----|
E|-------|-0-----------|-0-----------|-0-----------|-0-----------|-0---|

E|---------|-0---------0-|-9-7-5-5-7-9-|-2-0---5-2-0-|-2-0---0-----|---|
B|-0-------|---3-2-2-3---|-------------|-----3-------|-----3---3-2-|-0-|
G|---2-4-2-|-------------|-------------|-------------|-------------|---|
D|---0-----|-------------|-------------|-0-----------|-0-----------|---|
A|---------|-0-----------|-0-----------|-------0-----|-------0-----|---|
E|---------|-------------|-------------|-------------|-------------|-0-|

E|-----------|-7-5-4-4-5-7-|-11-12-11-9-11-9-|-7-9-7-5-7-5-|-10-------10-|
B|---------0-|-------------|-----------------|-------------|----10-------|
G|-2-1-1-2---|-------------|-----------------|-------------|-------11----|
D|-----------|-------------|-----------------|-------5-----|--0----------|
A|-----------|-------------|----------0------|-7-----------|-------------|
E|-----------|-0-----------|--0--------------|-------------|-------------|

E|-------|---0---7-3-0-|-5-----------|--------|----------0-|-2-0-------|
B|-10----|-8---0-------|-----2-3-2-0-|--------|---3--0-3---|-----3---0-|
G|----11-|-------------|-------------|-2------|------------|-------2---|
D|-------|-------------|-------------|--------|------------|-0---------|
A|-------|-7-----------|-------------|----2-0-|-0----------|-----------|
E|-------|-------------|-0-----------|--------|---3--------|-------2---|

E|---|-------0---|---------|-----------|-------------|-3-2-0-10--------|
B|-2-|-3-2---0---|---------|---------0-|-----2---2-3-|----------10-----|
G|---|-----4-0---|---------|-----0-2---|-2-4---4-----|-------------11--|
D|---|-------2---|---------|-----------|-------------|-----------------|
A|---|-2-----2---|---------|-----0-----|-------------|-----------------|
E|---|-------0---|-0---2---|-3---------|-------------|-----------------|

E|----------10---*-|
B|-------10------*-|
G|----11---------*-|
D|-12------------*-|
A|---------------*-|
E|---------------*-|





Comments


Popular Dixie Dregs tabs & chords
Aftershock Tabs
Bloodsucking Leeches Tabs
Cruise Control Tabs
Gina Lola Breakdown Tabs
Holiday Tabs
Leprechuan Promenade Tabs
Punk Sandwich Tabs
Refried Funky Chicken Tabs
Road Expense Tabs
Twiggs Approved Tabs


Song lyrics



↑ Back to top | Tablatures and chords are parodies/interpretations of the original songs. You may use it for private study, scholarship, research or language learning purposes only
© 2014 AZChords.com Contact us | Privacy policy | DMCA | Add/correct tabs | Request tabs | Top 50 tabs