>
 >
Leprechuan Promenade

Leprechuan Promenade Guitar Tabs

Dixie Dregs - Leprechuan Promenade chords, tabs, tablatures, lyrics

Guitar lessons | Add/correct | Request | Top 50 tabs Artists:  A B C D E F G H I J K L M N O P Q R S T U V W X Y Z 0-9

Leprechuan Promenade Guitar Tabs – Dixie Dregs

CD, Sheet music, Poster

Do you like Leprechuan Promenade? Share with your friends now
Tabs
Leprechuan Promenade Tab by Dixie Dregs


E-||---7---5--|-3---1---|--4---2--|-0---------||---------|----------|---1------|
B-||*--8---6--|-3---1---|--5---3--|-1--3-----*||---------|--------0-|---1--3---|
G-||---7---5--|-4---2---|--4---2--|-0--3------||---------|--------0-|---2--3---|
D-||----------|---------|---------|----3------||---------|--------0-|------3---|
A-||*---------|---------|---------|----------*||---------|----------|----------|
E-||----------|---------|---------|-----------||---------|----------|----------|

E-3-----|----5--3----------------------------------------------------|---------|
B-4--3--|-1--6--3--0-0-0-0-0-0-1-1-1-1-1-1-3-3-3-3-3-3-3-3-3-3-3-3---|---10-12-|
G-3--2--|-2--5--4--2-2-2-2-2-2-2-2-2-2-2-2-2-2-2-2-2-2-4-4-4-4-4-4---|-9-------|
D----4--|-2--------2-2-2-2-2-2-3-3-3-3-3-3-4-4-4-4-4-4-5-5-5-5-5-5---|---------|
A-------|----------0-0-0-0-0-0-0-0-0-0-0-0-0-0-0-0-0-0-------------0-|---------|
E-------|------------------------------------------------------------|---------|

E|-9-14--12--9h12p9-|-------------------------------|----------|----------|-----|
B|------------------|--12----10--12-----------------|----------|----------|-----|
G|------------------|-----12----------11----9-------|----------|----------|--7--|
D|------------------|--------------------12----129-|---7------|----------|------|
A|------------------|-------------------------------|----------|----------|-----|
E|------------------|-------------------------------|----------|----------|-----|

E|-------7-8--10-----|--13-(13)p12p10---------17b19---17~|----4------2---|-0---|
B|-7--10----------10-|----------------13-12--------------|----5------3---|-0---|
G|-------------------|-----------------------------------|----4------2---|-1---|
D|-------------------|-----------------------------------|---------------|-----|
A|-------------------|-----------------------------------|---------------|-----|
E|-------------------|-----------------------------------|---------------|-----|

E|--------|------------|------------|-4----2---|-0---------|-----------|-------|
B|---3----|---6----4---|-2-----0----|-5----3---|-0----3----|--6----4---|----2--|
G|---2----|---6----4---|-2-----0----|-4----2---|-1----2----|--6----4---|----2--|
D|---4----|---6----4---|-2-----0----|----------|------4----|--6----4---|----2--|
A|--------|------------|------------|----------|-----------|-----------|-------|
E|--------|------------|------------|----------|-----------|-----------|-------|

                                                Volume Swells

E|------|-------------------|-----------------------|-17-17-15-15~--------14-13-|
B|------|-------------------|-----------------------|---------------------------|
G|---0--|-------------------|-----------------------|---------------------------|
D|---0--|-------------------|-----0-1-2-------------|---------------------------|
A|------|--0h2-----7~-------|-2-3---------------0-2-|---------------------------|
E|------|------0-0----------|-----------1-2-3-4-----|---------------------------|

E-12-------|-----------------|--------------------------------------------|-----|
B----13----|-----------------|-15b17--15--r13-1312-12-10-10-11b13-10~----|------|
G-------12~|-----------------|--------------------------------------------|-----|
D----------|-----------------|--------------------------------------------|-----|
A----------|-----------------|--------------------------------------------|-----|
E----------|-----------------|--------------------------------------------|-----|

E----------|-8-10-11p10p8-----------------|-----------------|-11-13-15p13p11----|
B----------|--------------11-8h11--/10-13-|-8--8-8-6-6-8--8-|----------------15-|
G----------|------------------------------|-8--8-8-6-6-8--8-|-------------------|
D----------|------------------------------|-8--8-8-6-6-8--8-|-------------------|
A----------|------------------------------|-6--6-6-4-4-6--6-|-------------------|
E----------|------------------------------|-----------------|-------------------|

E|------------17-|-----------------------|-----8-10-11p10p8-----------------|---|
B|-11h15--/13----|-6-6-6--4-4-6--8-9-10--|------------------11-8h11--/10-13-|-8-|
G|---------------|-6-6-6--4-4-6--8-8-10--|----------------------------------|-8-|
D|---------------|-6-6-6--4-4-6--8-8-10--|----------------------------------|-8-|
A|---------------|-4-4-4--2-2-4--6-6--8--|----------------------------------|-6-|
E|---------------|-----------------------|----------------------------------|---|

E----------------10-15-|-14-10-14-15p12p10-------10--|--------------------------|
B--8-8-6-6-8--8--------|-------------------13-10-----|-------12--12-12-10-10-12-|
G--8-8-6-6-8--8--------|-----------------------------|-------12--12-12-10-10-12-|
D--8-8-6-6-8--8--------|-----------------------------|-------12--12-12-10-10-12-|
A--6-6-4-4-6--6--------|-----------------------------|-------10--10-10--8--8-10-|
E----------------------|-----------------------------|--------------------------|

E------|------------------------------------|------------------------------------|
B--12--|------------3-----------------------|-------8----------------------------|
G--12--|--------5~--2-----------------------|--8-10---10-8-7----7----8-10-5b7----|r
D--12--|-3h5--------0-1-3-4-------------0---|----------------8----10-------------|
A--10--|-----3--------------------1-2-3-----|------------------------------------|
E------|--------------------3-4-5-----------|------------------------------------|

E----|----------------|-------------------10-----------10-11-|-13-11-9-11-13-14-|
B----|------------10--|-11p10----10-11-13----13-11-13~-------|------------------|
G----|-5~------12-----|-------12-----------------------------|------------------|
D-8--|----------------|--------------------------------------|------------------|
A----|----------------|--------------------------------------|------------------|
E----|----------------|--------------------------------------|------------------|

E|-16-14-13-14-16-17-|-18--16--14---19~----|--8-10-11p10p8-----------------|---|
B|-------------------|---------------------|---------------11-8h11--/10-13-|-8-|
G|-------------------|---------------------|-------------------------------|-8-|
D|-------------------|---------------------|-------------------------------|-8-|
A|-------------------|---------------------|-------------------------------|-6-|
E|-------------------|---------------------|-------------------------------|---|

E---------------|-11-13-15p13p11---------------17-|-----------------------|--8-|
B--8-8-6-6-8--8-|----------------15-11h15--/13----|-6-6-6--4-4-6--8-8-10--|----|
G--8-8-6-6-8--8-|---------------------------------|-6-6-6--4-4-6--8-8-10--|----|
D--8-8-6-6-8--8-|---------------------------------|-6-6-6--4-4-6--8-8-10--|----|
A--6-6-4-4-6--6-|---------------------------------|-4-4-4--2-2-4--6-6--8--|----|
E---------------|---------------------------------|-----------------------|----|

E|-10-11p10p8-----------------|------------------14-18-|-17-14-17-20p18p15-------|
B|------------11-8h11--/10-13-|-8--8-8-6-6-8--8--------|-------------------17-15-|
G|----------------------------|-8--8-8-6-6-8--8--------|-------------------------|
D|----------------------------|-8--8-8-6-6-8--8--------|-------------------------|
A|----------------------------|-6--6-6-4-4-6--6--------|-------------------------|
E|----------------------------|------------------------|-------------------------|

E|-17--|-------------------------|--------7---5--|-3---1---|--4---2--|-0------|
B|-15--|-12--12-12-10-10-12--12--|--------8---6--|-3---1---|--5---3--|-1--3---|
G|-----|-12--12-12-10-10-12--12--|--------7---5--|-4---2---|--4---2--|-0--3---|
D|-----|-12--12-12-10-10-12--12--|---------------|---------|---------|----3---|
A|-----|-10--10-10--8--8-10--10--|---------------|---------|---------|--------|
E|-----|-------------------------|---------------|---------|---------|--------|

                                  With various string noises

E|--------|-------------------|-----------|-----------|--------------|---------|
B|--6--4--|-2----0------------|-----------|-----------|--------------|---------|
G|--6--4--|-2----0------------|-----------|-----------|--------------|---------|
D|--6--4--|-2----0---4----3---|--2-----1--|-----------|-<12>---------|---------|
A|--------|----------5----4---|--3-----2--|-----------|--------------|---------|
E|--------|----------5----6---|--3-----4--|-0---------|--------------|---------|

E-|---------|-------------|-----------|----^----------|----------|----------|----|
B-|---------|----8----10-|--7--------|----^-----7-7--|----------|----------|-----|
G-|---------|----9----11-|--7--------|----^9----6-6--|-5-----9--|----------|-----|
D-|---------|---10----12-|--9--------|----^9----8-8--|-7-----9--|----------|-----|
A-|---------|-------------|--7--------|----^7---------|-8-----7--|----------|----|
E-|---------|-------------|-----------|----^----------|----------|---------|-0---|

E-----------|-------------|-----------------|--------------5b7------|----------|
B-----------|-------------|-----------------|----5b6---5~-----------|----------|
G-----------|-------------|------------4b5--|-4~--------------------|----------|
D-----------|-------------|----2b3--2-------|-----------------------|----------|
A-3--2--/7--|----3--0--2--|-0---------------|-----------------------|----3--2--|
E-----------|-0-----------|-----------------|----------------------/|-0--------|

E------|-------------|---------------------|-------------------------|---------|
B------|-------------|---------------------|-------------------------|---------|
G------|-------------|---------3---------4-|-----------5-----------6-|---------|
D------|-------------|----5---------6------|-----7-----------8-------|----9----|
A--/7--|----3--0--2--|-3----6----4----7----|-5-----8-----6-----9-----|--7---10-|
E------|-0-----------|---------------------|-------------------------|---------|

E--------------------------|---------------------------------------|-8-10-11p10p-|
B--------------------------|---------------------------------------|-------------|
G--7---10----------8----11-|-----------9----12---------------------|-------------|
D----9-------10------10----|---11--------11--------12--------------|-------------|
A----------8----11---------|-9-----12-----------10----13-11-10-----|-------------|
E--------------------------|-----------------------------------13--|-------------|

E|-8-----------------|-----------------|-8-10-11p10p8--------------13-|--------|
B|---11-8h11--/10-13-|-8--8-8-6-6-8--8-|--------------11-8h11--/10----|-6-6-6--|
G|-------------------|-8--8-8-6-6-8--8-|------------------------------|-6-6-6--|
D|-------------------|-8--8-8-6-6-8--8-|------------------------------|-6-6-6--|
A|-------------------|-6--6-6-4-4-6--6-|------------------------------|-4-4-4--|
E|-------------------|-----------------|------------------------------|--------|

E|----------------|-----8-10-11p10p8-----------------|------------------10-15--|
B|-4-4-6--8-9-10--|------------------11-8h11--/10-13-|-8--8-8-6-6-8--8---------|
G|-4-4-6--8-8-10--|----------------------------------|-8--8-8-6-6-8--8---------|
D|-4-4-6--8-8-10--|----------------------------------|-8--8-8-6-6-8--8---------|
A|-2-2-4--6-6--8--|----------------------------------|-6--6-6-4-4-6--6---------|
E|----------------|----------------------------------|-------------------------|

E|-14-10-14-15p12p10-------10--|-------------------------------|----------------|
B|-------------------13-10-----|-------12--12-12-10-10-12--12--|----------------|
G|-----------------------------|-------12--12-12-10-10-12--12--|--------5~------|
D|-----------------------------|-------12--12-12-10-10-12--12--|-3h5--------0-1-|
A|-----------------------------|-------10--10-10--8--8-10--10--|-----3----------|
E|-----------------------------|-------------------------------|----------------|

E---------------------|--------------------------------------|-----------------|
B---------------------|-------8------------------------------|------------10---|
G---------------------|--8-10---10-8-7----7----8-10-5b7--r---|-5~------12------|
D-3-4-------------0---|----------------8----10------------8--|-----------------|
A-----------1-2-3-----|--------------------------------------|-----------------|
E-----3-4-5-----------|--------------------------------------|-----------------|

E|-------------------10-----------10-11-|-13-11-9-11-13-14-16-14-13-14-16-17--|
B|-11p10----10-11-13----13-11-13~-------|-------------------------------------|
G|-------12-----------------------------|-------------------------------------|
D|--------------------------------------|-------------------------------------|
A|--------------------------------------|-------------------------------------|
E|--------------------------------------|-------------------------------------|

E|-18--16--14--19-17--15---20~---/--|
B|----------------------------------|
G|----------------------------------|
D|----------------------------------|
A|----------------------------------|
E|----------------------------------|





Comments


Popular Dixie Dregs tabs & chords
Bloodsucking Leeches Tabs
Cruise Control Tabs
Good Intentions Tabs
Great Spectacular Tabs
Holiday Tabs
Little Kids Tabs
Punk Sandwich Tabs
Refried Funky Chicken Tabs
Road Expense Tabs
Twiggs Approved Tabs


Song lyrics



↑ Back to top | Tablatures and chords are parodies/interpretations of the original songs. You may use it for private study, scholarship, research or language learning purposes only
© 2014 AZChords.com Contact us | Privacy policy | DMCA | Add/correct tabs | Request tabs | Top 50 tabs