>
 >
Ice Cakes

Ice Cakes Guitar Tabs

Dixie Dregs - Ice Cakes chords, tabs, tablatures, lyrics

Guitar lessons | Add/correct | Request | Top 50 tabs Artists:  A B C D E F G H I J K L M N O P Q R S T U V W X Y Z 0-9

Ice Cakes Guitar Tabs – Dixie Dregs

CD, Sheet music, Poster

Do you like Ice Cakes? Share with your friends now
Tabs

E|-3-----|---------------------------------------|---------------------------6-|
B|-------|---------------------------------------|-------------------------3---|
G|-5b7---|-5-3-----------------------------3b5---|-------------------3-0-6-----|
D|-------|-------5-(5)-(5)-(5)-(3)-(3)-----------|---(5)-5-(5)-5---3-----------|
A|-------|---------------------------------------|-----------------------------|
E|-------|-----3------------------------3------3-|-3-------------3-------------|

E|-----5-|-----------------------------------------|---------------------|------|
B|---3---|-----------------------------------------|---------------------|------|
G|-5-----|-3-0-----------------------------3b5-----|---------------------|------|
D|-------|-------5-(5)-(5)-(5)-(5)-(5)-3-----------|-------5---5---3b5---|-5--5-|
A|-------|-----------------------------------------|---------------------|------|
E|-------|-----3-------------------------3-----3-3-|----3----3-----------|------|

E|-----------------|---------------------------------|--------------------------|
B|-----------------|---------------------------------|--------------------------|
G|-----------------|-5-3-----------------------------|-------3---5-3b4----------|
D|-3---3-5---------|-----5---3-5---3-----------3-4-5-|---------5--------------3-|
A|---5-------5-3-5-|-------5-----3---5---3-1---------|------------------3-4-5---|
E|-----------------|-------------------3-------------|--------------------------|

E|-------------------|--------------||-3------7-|-5----|-------6------10-|--8---|
B|-------------------|--------------||-5---5----|-7----|-------8---8-----|-10---|
G|-------------------|--------------||-5---5----|-7----|-------8---8-----|-10---|
D|-----5-3-----------|--------------||-----5----|------|-----------8-----|------|
A|-5-3-----43-1-3-1-|--------------||----------|------|-----------------|-------|
E|-------------------|-3-3---3------||----------|------|-----------------|------|

E|---------|-------------|------------|------------|--------------------------14-|
B|---------|-------------|------------|------------|-----------------14-15-17----|
G|---------|---3--3---2--|---5--5---4-|---7--7--6--|---------10---10-------------|
D|---------|-3-0--1------|-5-2--3-----|-7-4--5-----|----------8----7-------------|
A|---3-5-6-|----------3--|-3--------5-|-5-------7--|-----------------------------|
E|---------|-------------|------------|------------|-----------------------------|

E|-15-16-|-17------------|----------------14-15-16-|-17------------|-------|---|
B|-------|----15--14-----|-------14-15-17----------|----15--14-----|-------|---|
G|-------|----14--14--17-|--16---------------------|----14--14--17-|--16---|---|
D|-------|----16--14--15-|-------------------------|----16--14--15-|-------|---|
A|-------|---------------|--17---------------------|---------------|--17---|---|
E|-------|---------------|-------------------------|---------------|-------|---|

E|-------------------------------------------|-----------------------------------|
B|-------------------------------------------|-----------------------------------|
G|-------------------------------------3-4-5-|-8-7-5-7-10--13b14--10-------------|
D|------------------3-----6--5-3-5-6-7-------|-----------------------13-10-12-10-|
A|------------3-4-5---4-5--------------------|-----------------------------------|
E|------1-4-5--------------------------------|-----------------------------------|

E|------------------------|----------------6-6--5---|---11----10----10----8-|---|
B|------------------------|----------------8-8--6---|----8----11----11----8-|---|
G|------------------------|----------5--7--8-8--5---|----8----10----10---10-|---|
D|----10-------10-12------|----------7--8-----------|---10----12----12---10-|---|
A|-13----11-12-------8-10-|-------------------------|------------------8----|---|
E|------------------------|-------6-----------------|-8----10----11---------|-3-|

E|------3-3--2--|---8---7---7---5-|--------4----7-5--|--------6-6--5----|-------|
B|------5-5--3--|---5---8---8---5-|--------5--7-5-6--|--------8-8--6--4-|-----3-|
G|-2--4-5-5--2--|---5---7---7---7-|--------4--6-5-5--|---5-7--8-8--5--5-|--3--3-|
D|-4--5---------|---7---9---9---7-|--------6--7-5-7--|---7-8----------5-|--3--5-|
A|--------------|-------------5---|------------------|----------------3-|--5--6-|
E|--------------|-5---7---8-------|------------------|-6----------------|-------|

E|--------|------3-3--2----|--------------------4-|----7--5--8-|-6--13--10--15-|
B|--------|------5-5--3----|-----------------7--5-|-7--5--6--8-|-6--10--10--13-|
G|--5-----|-2-4--5-5--2--5-|-----------7--9-----4-|-6--5--5--8-|-7--10--12--14-|
D|--7-----|-4-5----------5-|-----------7--9--7--6-|-7--5--7--6-|-8--10--12--12-|
A|--8-----|----------------|-----------------5----|------------|---------------|
E|------3-|--------------5-|-----------7--8-------|------------|---------------|

E-|--14-14---3----||-------------------------------|----------------------------|
B-|--15-15--------||-------------------------------|--------------------------3-|
G-|--14-14---5b7--||-5-3---------------------------|----------------------3-6---|
D-|--13-13--------||-------5-(5)-(5)-(5)-(5)-(5)-5-|---(5)-(5)-(5)-5---3--------|
A-|---------------||-------------------------------|----------------------------|
E-|---------------||-----3-------------------------|-3---------------3----------|

E|-6-----5-|-----------------------------------------|---------------------------|
B|-----3---|-----------------------------------------|---------------------------|
G|---5-----|-3-0-----------------------------3b5-----|---------------------------|
D|---------|-------5-(5)-(5)-(5)-(5)-(3)-3-----------|---(5)-(5)-(5)-5---5---3b5-|
A|---------|-----------------------------------------|---------------------------|
E|---------|-----3-------------------------3-----3-3-|-3---------------3---------|

E---|----------------------|---------------------------------|------------------|
B---|----------------------|---------------------------------|------------------|
G---|----------------------|-5-3-----------------------------|-3---5-3b4--------|
D---|-5--5-3---3-5---------|-----5---3-5---3-----------3-4-5-|---5--------------|
A---|--------5-------5-3-5-|-------5-----3---5---3-1---------|------------3-4-5-|
E---|----------------------|-------------------3-------------|------------------|

E|---------------------|----------------||---------8-6-----6------3---|-3-------|
B|---------------------|----------------||-------8-----8-6----/11---6-|---------|
G|---------------------|----------------||---6-7----------------------|---5--r--|
D|-3-----5-3-----------|----------5--3--||----------------------------|---------|
A|---5-3-----43-1-3-1-|----------------||----------------------------|----------|
E|---------------------|-3-3---3--------||-6--------------------------|---------|

E|------|--------------------|----8b10--6-----9-8b10--6-----9-8b10--|-8---------|
B|------|-3--5---------------|------------8-6-----------8-6---------|----/13--8-|
G|-3----|------2b3-0-6-0-0-5-|--------------------------------------|-----------|
D|------|--------------------|--------------------------------------|-----------|
A|------|--------------------|--------------------------------------|-----------|
E|------|--------------------|--------------------------------------|-----------|

E|----11b13--11-8---------|---------------------|--------------------------13--|
B|-10-------------10-8-11-|-11-8----------------|------------------------------|
G|------------------------|------10-8-10b12-----|--12b14--12----10--12b14------|
D|------------------------|------------------10-|------------12----------------|
A|------------------------|---------------------|------------------------------|
E|------------------------|---------------------|------------------------------|

E|--20b22--18-------21-20b22--|-18-----------------------|-----------|--13--13-|
B|------------20-18-----------|----13b15--11----11-13b15-|-----------|---------|
G|----------------------------|--------------10----------|-----------|---------|
D|----------------------------|--------------------------|-----------|---------|
A|----------------------------|--------------------------|-----------|---------|
E|----------------------------|--------------------------|-----------|---------|

E|-------10-----------------|----------------|-----------------------|----------|
B|-13-14----11-------11----|---6------------|-----------------------|-----------|
G|-------------10-12----8-6-|-8---6b7---6b8--|-5--r-3----------------|----------|
D|--------------------------|----------------|--------6-5-3----------|----------|
A|--------------------------|----------------|--------------4-5------|----------|
E|--------------------------|----------------|------------------6--4-|-r---4-5--|

E|--------------|----------------------|------------------------------|--------|
B|--------------|----------------------|------------------------------|--------|
G|--------------|----------------------|------------------------------|--------|
D|---------6b8--|----8--6--------------|-----------------------8-10--r|-8------|
A|---6-7-8------|---------8-6-4b5------|-----4~---------8-9-10--------|---10-8-|
E|-6------------|------------------6-4-|-4-6-----8-9-10---------------|--------|

E|------------------|-----------------------------------|-------------11--------|
B|-------11---------|-----------------------------------|-11--13b15-----13b15---|
G|-10b12------------|-----------------------------------|-----------------------|
D|----------10-8----|--8-8--10-----------------10-11-12-|-----------------------|
A|---------------10-|-------------------8-9-10----------|-----------------------|
E|------------------|------------8-9-10-----------------|-----------------------|

E|------------|-------------15-----------------------16b18-|---16-15-14-13-------|
B|--11--------|----------11----13b15--11----------13-------|---------------17-16-|
G|------12-11-|-10-11-12-----------------------------------|---------------------|
D|------------|--------------------------10-11-12----------|---------------------|
A|------------|--------------------------------------------|---------------------|
E|------------|--------------------------------------------|---------------------|

E|-13----13-------15-13-|--------------------------------------------|----------|
B|----16----14-15-------|-14-13--------------------------------------|----------|
G|----------------------|-------15-13b15--15-13----13----------------|----------|
D|----------------------|-----------------------15----15-13--11b12---|----------|
A|----------------------|--------------------------------------------|----------|
E|----------------------|--------------------------------------------|-11-12-13-|

E|-------------------------------------------------------------------13----------|
B|-----------------------------------------------------------13b14------13--r-11-|
G|-----------------------------------13b15-------------13-13---------------------|
D|----------11b12-----------13-14-15----------13-14-15---------------------------|
A|-11-12-13--------11-12-13------------------------------------------------------|
E|-------------------------------------------------------------------------------|

E|------*|-||--6----8------9-10-|------8---8---|--------6-----8---6---|---------|
B|------*|-||*-6----8-----11-11-|------9---8---|--------6-----8---6---|---------|
G|------*|-||--6h7--8------9-10-|-----10---8---|--------6h7---8---6h7-|---98----|
D|------*|-||-------------------|--------------|----------------------|---98----|
A|------*|-||*------------------|--------------|----------------------|---------|
E|------*|-||-------------------|--------------|----------------------|---------|

E|---------||--------|-----|----------|----------|-----------|-------|---------|
B|--------*||------3-|-----|--------6-|-4--------|---3-----6-|-5-----|-6-----9-|
G|--6b7----||-3------|-5---|-6--------|-5--------|------3----|-5-----|-----6---|
D|--6b7----||-5--5---|-7---|-----8----|-6--------|---3-------|-5-----|-6-------|
A|--------*||----6---|-8---|-9--------|----------|------5----|-------|-----8---|
E|---------||--------|-----|-----9----|----------|-----------|-------|---------|

E|--|--------|-3------7-|-5----|-------6------10-|--8----------|--------------|
B|--|-8------|-5---5----|-7----|-------8---8-----|-10----------|--------------|
G|--|-8------|-5---5----|-7----|-------8---8-----|-10----------|---3--3---2---|
D|--|-8------|-----5----|------|-----------8-----|-------------|-3-0--1-------|
A|--|--------|----------|------|-----------------|-------3-5-6-|----------3---|
E|--|--------|----------|------|-----------------|-------------|--------------|

E|------------|------------|--------------------------14-15-16-|-17------------|
B|------------|------------|-----------------14-15-17----------|----15--14-----|
G|---5--5---4-|---7--7--6--|---------10---10-------------------|----14--14--17-|
D|-5-2--3-----|-7-4--5-----|----------8----7-------------------|----16--14--15-|
A|-3--------5-|-5-------7--|-----------------------------------|---------------|
E|------------|------------|-----------------------------------|---------------|

E-|----------------14-15-16-|-17------------|-------|--------------------------|
B-|-------14-15-17----------|----15--14-----|-------|--------------------------|
G-|--16---------------------|----14--14--17-|--16---|--------------------------|
D-|-------------------------|----16--14--15-|-------|--------------------3-----|
A-|--17---------------------|---------------|--17---|--------------3-4-5---4-5-|
E-|-------------------------|---------------|-------|--------1-4-5-------------|

E|--------------------|----------------------------------------------------------|
B|--------------------|----------------------------------------------------------|
G|--------------3-4-5-|-8-7-5-7-10--13b14--10------------------------------------|
D|-6--5-3-5-6-7-------|-----------------------13-10-12-10----10-------10-12------|
A|--------------------|-----------------------------------13----11-12-------8-10-|
E|--------------------|----------------------------------------------------------|

E-|----------------6-6--5---|---11----10----10----8-|--------3-3--2--|---8---7-|
B-|----------------8-8--6---|----8----11----11----8-|--------5-5--3--|---5---8-|
G-|----------5--7--8-8--5---|----8----10----10---10-|---2--4-5-5--2--|---5---7-|
D-|----------7--8-----------|---10----12----12---10-|---4--5---------|---7---9-|
A-|-------------------------|------------------8----|----------------|---------|
E-|-------6-----------------|-8----10----11---------|-3--------------|-5---7---|

E|---7---5-|--------4----7-5--|--------6-6--5----|--------------|------3-3--2--|
B|---8---5-|--------5--7-5-6--|--------8-8--6--4-|-----3--------|------5-5--3--|
G|---7---7-|--------4--6-5-5--|---5-7--8-8--5--5-|--3--3--5-----|-2-4--5-5--2--|
D|---9---7-|--------6--7-5-7--|---7-8----------5-|--3--5--7-----|-4-5----------|
A|-----5---|------------------|----------------3-|--5--6--8-----|--------------|
E|-8-------|------------------|-6----------------|------------3-|--------------|

E|---|--------------------4-|----7--5--8-|-6--13--10--15-|--14-14---||----------|
B|---|-----------------7--5-|-7--5--6--8-|-6--10--10--13-|--15-15---||----------|
G|-5-|-----------7--9-----4-|-6--5--5--8-|-7--10--12--14-|--14-14---||-5--r-----|
D|-5-|-----------7--9--7--6-|-7--5--7--6-|-8--10--12--12-|--13-13---||--------5-|
A|---|-----------------5----|------------|---------------|----------||----------|
E|-5-|-----------7--8-------|------------|---------------|----------||------3---|

E-------------------------------------------|-------------------------------------|
B-------------------------------------------|-------------------------------------|
G-------------------------------------------|-------------------------------------|
D-(5)-(5)-(5)-(5)-5---(5)-(5)-(5)-(5)-(5)-5-|---(5)-(5)-(5)-(5)-(5)-5---3-(5)-(5)-|
A-------------------------------------------|-------------------------------------|
E-------------------3-----------------------|-3-----------------------3-----------|

E|----6--5--|-------------------------------------------------------|-----------|
B|----------|-------------------------------------------------------|-----------|
G|-3--6--5--|-3-0---------------------------------------------------|-----------|
D|----------|-------5-(5)-(5)-(5)-(5)-(5)-5---(5)-(5)-(5)-(5)-(5)-5-|---(5)-(5)-|
A|----------|-------------------------------------------------------|-----------|
E|----------|-----3-------------------------3-----------------------|-3---------|

E|-------------------------|----------------------|----------------------------|
B|-------------------------|----------------------|----------------------------|
G|-------------------------|----------------------|---5-3----------------------|
D|-(5)-5---5-(5)-(5)-3b5---|-5-5-3---3-5----------|-------5---3-5---3----------|
A|-------------------------|-------5--------5-3-5-|---------5-----3---5---3-1--|
E|-------3-----------------|----------------------|---------------------3------|

E|---------|----------------------------------------|-----------||--|
B|---------|----------------------------------------|-----------||--|
G|---------|-3-----5-3b4----------------------------|-----------||--|
D|---------|---5-3--------------3-----5-3-----------|-----------||--|
A|---3-4-5-|--------------3-4-5---5-3-----43-1-3-1-|-----------||---|
E|---------|----------------------------------------|-3-3---3---||--|





Comments


Popular Dixie Dregs tabs & chords
Aftershock Tabs
Bash Tabs
Bloodsucking Leeches Tabs
Good Intentions Tabs
Great Spectacular Tabs
Holiday Tabs
Odyssey Tabs
Pride O The Farm Tabs
Punk Sandwich Tabs
Twiggs Approved Tabs


Song lyrics



↑ Back to top | Tablatures and chords are parodies/interpretations of the original songs. You may use it for private study, scholarship, research or language learning purposes only
© 2014 AZChords.com Contact us | Privacy policy | DMCA | Add/correct tabs | Request tabs | Top 50 tabs