>
 >
Holiday

Holiday Guitar Tabs

Dixie Dregs - Holiday chords, tabs, tablatures, lyrics

Guitar lessons | Add/correct | Request | Top 50 tabs Artists:  A B C D E F G H I J K L M N O P Q R S T U V W X Y Z 0-9

Holiday Guitar Tabs – Dixie Dregs

CD, Sheet music, Poster

Do you like Holiday? Share with your friends now
Tabs
Holiday Tab by Dixie Dregs

E|----------------------------------------------------|-----------------|
B|-------------10-12p10----10----10-------------------|-----------10-12-|
G|---9-9h11-14----------14----11-------11p9----9----9-|---9h11-14-------|
D|-0--------------------------------14------14---12---|-0---------------|
A|----------------------------------------------------|-----------------|
E|----------------------------------------------------|-----------------|

E----10-------12-10----14-10----|-----------------------------------------|
B-15----15-12-------15-------15-|-------------10-12p10----10----10--------|
G-------------------------------|---9-9h11-14----------14----11-------11--|p
D-------------------------------|-0--------------------------------14-----|
A-------------------------------|-----------------------------------------|
E-------------------------------|-----------------------------------------|

E|-------------|--------------------------------------------|----------|
B|-------------|--------------------------------------------|----------|
G|-9----9----9-|-------------9-11p9----9--------------------|----------|
D|---14---12---|-12-------12--------12------12----9-0-2p0---|---9-9h11-|
A|-------------|----12-14----------------14----12---------4-|-0--------|
E|-------------|--------------------------------------------|----------|

E---------------------------------------|-------------------------------|
B---------------------------------------|-------------------10-------12-|
G----9-11p9----9----9-------------------|-----------9-11-14----14-11----|
D-14--------14---11------11p9----9----9-|---9h11-14---------------------|
A---------------------14------14---12---|-0-----------------------------|
E---------------------------------------|-------------------------------|

E----------------|------------------------------------------------|-------|
B-10----14-10----|------------------------------------------------|-------|
G----14-------14-|-------------9-11p9----9----9-------------------|-------|
D----------------|---9-9h11-14--------14---11------11p9----9----9|-7------|
A----------------|-0----------------------------14------14---12---|-------|
E----------------|------------------------------------------------|---12--|

                             Part B

E----------------------------|-----------------------------------------|
B----------------------------|-----------------------------------------|
G----------------------------|---------------2-4-2---------------------|
D---7-9-11p9-7-9----9-7------|-4-2-------2-4------------------------/4-|
A-9--------------12-----9-12-|-----5-4-5-----------4---2-4-5-2---------|
E----------------------------|-----------------------5---------5-3-----|

E|-------|----------------------|----------------------------------------|
B|-------|----------------------|----------------------------------------|
G|-------|----------------------|----------------------------------------|
D|-2---4~|----------------------|-4-2-------------------------4-2--------|
A|----/5~|----------------------|-----5-4-2---2-4-5-4-------2-----4-2----|
E|-------|----------------------|-----------5---------5-2-3-----------5~-|

E-|-----------------------|----------------------------|-----2---------|
B-|-----------------------|-3-2---2-3---------------3--|-3-5---3---5-2-|
G-|-----------------------|-----4-----4b5--r2-----2----|---------4-----|
D-|-----------------------|-------------------5-4------|---------------|
A-|-----------------------|----------------------------|---------------|
E-|-----------------------|----------------------------|---------------|

E|-----2-3-2h3-5-|------2-2-2-0-0-0-2-2-2-|-5-5-5--3--3------------|--5-|
B|---5-----------|------3-3-3-2-2-2-3-3-3-|-3-3-3--5--3---/7~-5~---|--5-|
G|-2-------------|------4-4-4-2-2-2-4-4-4-|-2------0--0---/7~-6~---|----|
D|---------------|------------------------|------------------------|----|
A|---------------|------------------------|------------------------|----|
E|---------------|------------------------|------------------------|----|

                                                     Part D

E|-5-5-6--8-10--9--|--------8-8-8--9-11-13-12--------|---------10-12-12~b14-|
B|-5-5-6--6--8-10--|-10--8--8-8-8--9--9-11-13--------|------10--------------|
G|-----7--5--7--9--|-10--9--------10--8-10-12--14----|-9/11-----------------|
D|-----8--7--9-11--|--------------11-10-12-14--------|----------------------|
A|-------------12--|-----------------------15--------|----------------------|
E|-----------------|---------------------------------|----------------------|

E|--12--r9----------|--------12-14b16--14~------|----------13-15-15b17-|
B|---------12b14----|-----12--------------------|-------13-------------|
G|------------------|--13-----------------------|-14b16----------------|
D|------------------|---------------------------|----------------------|
A|------------------|---------------------------|----------------------|
E|------------------|---------------------------|----------------------|

E|--15--r12---------|--------6-8--r-----------8h12-11b13--10-9---------|
B|----------15b17---|------6-------10-------8------------------10------|
G|------------------|-8b10------------10b12-----------------------9~---|
D|------------------|--------------------------------------------------|
A|------------------|--------------------------------------------------|
E|------------------|--------------------------------------------------|

E-|---------10-12-12~b14-12--r9----------|--------12-14b16--14~-------|
B-|------10---------------------12b14----|-----12---------------------|
G-|-9/11---------------------------------|--13------------------------|
D-|--------------------------------------|----------------------------|
A-|--------------------------------------|----------------------------|
E-|--------------------------------------|----------------------------|

E|----------13-15-15b17--15--r12---------|----------18-20b22--r17-------|
B|-------13----------------------15b17---|-------18---------------18b20-|
G|-14b16---------------------------------|-20b22------------------------|
D|---------------------------------------|------------------------------|
A|---------------------------------------|------------------------------|
E|---------------------------------------|------------------------------|

                              Part E

E-15----20-19b21--------------|-----------------------------------------|
B----20-----------------------|-------------10-12p10----10----10--------|
G-----------------------------|---9-9h11-14----------14----11-------11--|p
D-----------------------------|-0--------------------------------14-----|
A-----------------------------|-----------------------------------------|
E-----------------------------|-----------------------------------------|

E|-------------|--------------------10-------12-10----14-10----|-------|
B|-------------|-----------10-12-15----15-12-------15-------15-|-------|
G|-9----9----9-|---9h11-14-------------------------------------|---2-4-|
D|---14---12---|-0---------------------------------------------|-0-----|
A|-------------|-----------------------------------------------|-------|
E|-------------|-----------------------------------------------|-------|

E|-----------------------------|---------------------------------------|
B|---3-5p3---3---3-------------|---------------------------------------|
G|-7-------7---4-----4p2-------|---------9-11p9----9----9--------------|
D|-----------------7-------4---|-9h11-14--------14---11------11p9----9-|
A|-----------------------7---0-|--------------------------14------14---|
E|-----------------------------|---------------------------------------|

E------|----------------------------------------------|-----------------|
B------|-------------------10-------12-10----14-10----|-----------------|
G------|-----------9-11-14----14-11-------14-------14-|---------2-4p2---|
D----9-|---9h11-14------------------------------------|---2-4-7-------7-|
A-12---|-0--------------------------------------------|-0---------------|
E------|----------------------------------------------|-----------------|

E|---------------------|------------------------------------------------|
B|---------------------|-----------10-12p10----10----10-----------------|
G|-2---2---------------|-9-9h11-14----------14----11-------11p9----9----|
D|---4-----4-2-------0-|--------------------------------14------14---12-|
A|-------7--p--7-2-4---|------------------------------------------------|
E|---------------------|------------------------------------------------|

E|---|--------------------10-------12-10----14-10----|-----------------|
B|---|-----------10-12-15----15-12-------15-------15-|---------3-5p3---|
G|-9-|---9h11-14-------------------------------------|---2h4-7-------7-|
D|---|-0---------------------------------------------|-----------------|
A|---|-----------------------------------------------|-0---------------|
E|---|-----------------------------------------------|-----------------|

E|-------------------|-------------------------------------------------|
B|-3---3-------------|---------------10-12p10----10----10--------------|
G|---4-----4p2-------|-----9-9h11-14----------14----11-------11p9----9-|
D|-------7-------4-0-|-(0)--------------------------------14------14---|
A|-------------7-----|-------------------------------------------------|
E|-------------------|-------------------------------------------------|

E|------|--------------------10-------12-10----14-10----|---------------|
B|------|-----------10-12-15----15-12-------15-------15-|-------3-5p3---|
G|----9-|---9h11-14-------------------------------------|-2h4-7-------7-|
D|-12---|-0---------------------------------------------|---------------|
A|------|-----------------------------------------------|---------------|
E|------|-----------------------------------------------|---------------|

E|---------------------|-----------------------------------------------|
B|-3---3---------------|-----------------------------------------------|
G|---4-----4p2---------|-----------9-11p9----9----9--------------------|
D|-------7-----7-2-4---|-9-9h11-14--------14---11------11p9----9----9--|
A|-------------------0-|----------------------------14------14---12----|
E|---------------------|-----------------------------------------------|

E----------------------------------------------|-----------------------|
B-------------------10-------12-10----14-10----|-----------------------|
G-----------9-11-14----14-11-------14-------14-|---------2-4p2---2---2-|
D---9h11-14------------------------------------|---2h4-7-------7---4---|
A-0--------------------------------------------|-0---------------------|
E----------------------------------------------|-----------------------|

E|---------------|------------------------------------------------|------|
B|---------------|------------------------------------------------|------|
G|---------------|-------------9-11p9----9----9-------------------|------|
D|---4p2---------|---9-9h11-14--------14---11------11p9----9----9-|---9--|h
A|-7-----7-2-4-0-|-0----------------------------14------14---12---|-0----|
E|---------------|------------------------------------------------|------|

E------------------------------------------|----------------------------|
B---------------10-------12-10----14-10----|----------------------------|
G-------9-11-14----14-11-------14-------14-|---------2-4p2---2---2------|
D-11-14------------------------------------|---2h4-7-------7---4-----4--|p
A------------------------------------------|-0---------------------7----|
E------------------------------------------|----------------------------|

            Part F

E|---------|------------------------------------------------|----------|
B|---------|------------------------------------------------|----------|
G|---------|----------------2-4-2---------------------------|----------|
D|-2---2-4-|--4-2-------2-4------------------------/4-2-----|----------|
A|---7-----|------5-4-5-----------4---2-4-5-2------------/5~|----------|
E|---------|------------------------5---------5-3-----------|----------|

E|---------------|---------------------------------------------|--------|
B|---------------|---------------------------------------------|--------|
G|---------------|---------------------------------------------|--------|
D|---------------|-4-2-------------------------4-2-------------|--------|
A|---------------|-----5-4-2---2-4-5-4-------2-----4-2---------|--------|
E|---------------|-----------5---------5-2-3-----------5~------|--------|

E|-----------------|----------------------------|-----2-------------2-3-|
B|-----------------|-3-2---2-3---------------3--|-3-5---3---5-2---5-----|
G|-----------------|-----4-----4b5--r2-----2----|---------4-----2-------|
D|-----------------|-------------------5-4------|-----------------------|
A|-----------------|----------------------------|-----------------------|
E|-----------------|----------------------------|-----------------------|

                   Part G

E|-2h3-5~|---------------------------------|--------------------------|
B|-------|----------/7-8-10-------7~-------|--------------------------|
G|-------|------------------7~--9----------|-9-7--------------7~------|
D|-------|---------------------------------|-----7~------7-12---------|
A|-------|---------------------------------|--------9-10--------------|
E|-------|---------------------------------|--------------------------|

E|--------------7-10-9----------|---------------------------------------|
B|-------7/8-10--------10-7---7~|---------------------------------------|
G|-6-7-9--------------------7---|-9-7-----7~----------------------------|
D|------------------------------|-----7-9----9-97--------7-9p7----7-9---|
A|------------------------------|------------------9--/10-------10------|
E|------------------------------|---------------------------------------|

E|---------------------------------7----7-8-9/10-11b13--|-10-9-----------|
B|---------------6-7-8-7-8-10-8-10---10-----------------|------10--------|
G|-6-7-9-7-6-7-9----------------------------------------|---------9-8----|
D|------------------------------------------------------|-------------12-|
A|------------------------------------------------------|----------------|
E|------------------------------------------------------|----------------|

E|----------------|---------------------------------------|----------12-|
B|----------------|----------------14-15-17-17b19-17~-----|-12-14-15----|
G|---------11-14~-|----------13-14------------------------|-------------|
D|-9/11-14--------|-13-14-16------------------------------|-------------|
A|----------------|---------------------------------------|-------------|
E|----------------|---------------------------------------|-------------|

E|-14-12-----------12--------------------------------------------------|
B|-------15-14--15----15-14-13-12--------------------------------------|
G|--------------------------------14-13-12-11--------------------------|
D|--------------------------------------------14-13-12-11~-11-12-14----|
A|------------------------------------------------------------------12-|
E|---------------------------------------------------------------------|

E|-------|------------------------------------------------14-16b18-|---|
B|-------|---------------------------------------14-15-17----------|---|
G|-------|------------------------------13-14-16-------------------|---|
D|-------|---------------------12-14-16----------------------------|---|
A|-12~---|------------12-14-16-------------------------------------|---|
E|-------|--/12-14-16----------------------------------------------|---|

                                                    Violin Solo

E|-16-14-12--------------------------------------------|------------|---|
B|----------15-14-12-------12-14-14b16-14p12~----(12)-|------------|----|
G|-------------------13-14-----------------------------|------------|---|
D|-----------------------------------------------------|------------|---|
A|-----------------------------------------------------|------------|---|
E|-----------------------------------------------------|------------|---|

E|------------|-------------|----------|--------|------------------------|
B|------------|-------------|----------|--------|------------------------|
G|------------|-------------|----------|--------|-------7-6-7-9-7-9--/11-|
D|------------|-------------|----------|--------|-7-5-7------------------|
A|------------|-------------|----------|--------|------------------------|
E|------------|-------------|----------|--------|------------------------|

E|------------------------------------------17-|-----------|--5-5-5-6--|
B|------------------------------------15-17-12-|--/7~-5~---|--5-5-5-6--|
G|-9-11-12-11-12-14-12-14/16-14-16-18-------11-|--/7~-6~---|--------7--|
D|-------------------------------------------9-|-----------|--------8--|
A|---------------------------------------------|-----------|-----------|
E|---------------------------------------------|-----------|-----------|

E|-8-10--9--|--------8-8-8--9-11-13-12--------||----------10-12-12~b14-|
B|-6--8-10--|-10--8--8-8-8--9--9-11-13--------||*------10--------------|
G|-5--7--9--|-10--9--------10--8-10-12--14----||--9/11-----------------|
D|-7--9-11--|--------------11-10-12-14--------||-----------------------|
A|------12--|-----------------------15--------||*----------------------|
E|----------|---------------------------------||-----------------------|

E|-12--r9----------|--------12-14b16--14~------|----------13-15-15b17--|
B|--------12b14----|-----12--------------------|-------13--------------|
G|-----------------|--13-----------------------|-14b16-----------------|
D|-----------------|---------------------------|-----------------------|
A|-----------------|---------------------------|-----------------------|
E|-----------------|---------------------------|-----------------------|

E|-15--r12---------|--------6-8--r------------8-12-11b13--10-9------|--|
B|---------15b17---|------6-------10--------8------------------10---|--|
G|-----------------|-8b10-------------10b12-----------------------9~|--|
D|-----------------|------------------------------------------------|--|
A|-----------------|------------------------------------------------|--|
E|-----------------|------------------------------------------------|--|

E----------10-12-12~b14-12--r9----------|--------12-14b16--14~------|-------|
B-------10---------------------12b14----|-----12--------------------|-------|
G--9/11---------------------------------|--13-----------------------|-14b16-|
D---------------------------------------|---------------------------|-------|
A---------------------------------------|---------------------------|-------|
E---------------------------------------|---------------------------|-------|

E|----13-15-15b17--15--r12---------|----------18-20b22--r17-------15----|
B|-13----------------------15b17---|-------18---------------18b20----20-|
G|---------------------------------|-20b22------------------------------|
D|---------------------------------|------------------------------------|
A|---------------------------------|------------------------------------|
E|---------------------------------|------------------------------------|

E-20-19b21-------||-21-21~b22-21~-21b22--r19-20-19-|-20-20b21-15-17b19-|
B---------------*||--------------------------------|-------------------|
G----------------||--------------------------------|-------------------|
D----------------||--------------------------------|-------------------|
A---------------*||--------------------------------|-------------------|
E----------------||--------------------------------|-------------------|

E|-17-15-15h17~---------|-17b19-17-16b17--r14-|
B|----------------------|---------------------|
G|----------------------|---------------------|
D|----------------------|---------------------|
A|----------------------|---------------------|
E|----------------------|---------------------|





Comments


Popular Dixie Dregs tabs & chords
Aftershock Tabs
Bash Tabs
Cruise Control Tabs
Gina Lola Breakdown Tabs
Leprechuan Promenade Tabs
Little Kids Tabs
Odyssey Tabs
Pride O The Farm Tabs
Punk Sandwich Tabs
Refried Funky Chicken Tabs


Song lyrics



↑ Back to top | Tablatures and chords are parodies/interpretations of the original songs. You may use it for private study, scholarship, research or language learning purposes only
© 2014 AZChords.com Contact us | Privacy policy | DMCA | Add/correct tabs | Request tabs | Top 50 tabs