>
 >
Great Spectacular

Great Spectacular Guitar Tabs

Dixie Dregs - Great Spectacular chords, tabs, tablatures, lyrics

Guitar lessons | Add/correct | Request | Top 50 tabs Artists:  A B C D E F G H I J K L M N O P Q R S T U V W X Y Z 0-9

Great Spectacular Guitar Tabs – Dixie Dregs

CD, Sheet music, Poster

Do you like Great Spectacular? Share with your friends now
Tabs
The Great Spectacular Tab by Dixie Dregs


E-----3-----------------||--------0---0-0---0-------------------|-0-0---|
B-----3-3---------------||*-------7---7-7---9-------------------|-7-7---|
G-4---0-2-2---4---4-----||--------8---8-8---9-------------------|-8-8-9-|
D-4-5-0-0-2---4---4-----||--------9---9-9---9-------------------|-9-9-9-|
A-2-3-2---0-0-2-2-2-----||*---------------7---------------------|-------|
E-----3-----------------||--0-0-0---0---------0-0-0-0-0-0-0-0-0-|-------|

E---0--------------------||-0-0-----0--------------------||--14---12---|
B---5-------------------*||-7-7-----5--------------------||*-12---10---|
G---6--------------------||-8-8-9---6--------------------||--11--------|
D---7--------------------||-9-9-9---7--------------------||------------|
A-0---0-0-0-0-0-0-0-0-0-*||-------0----0-0-0-0-0-0-0-0-0-||*----0----0-|
E------------------------||------------------------------||------------|

                        x4

E-----3-3----------------||-||---------0-----1---0------||-------0-----|
B-----3-3---------------*||-||*--3-----5-3---1-1-1-3-1-*||-3-----5-3---|
G-----0-0----------------||-||---0-----2---0------------||-0-----2-----|
D------------------------||-||---------------3-3-2-0-2--||-------------|
A-0-0-----0-0-0-0-0-0-0-*||-||*----------------------3-*||-------------|
E------------------------||-||-----3-3------------------||---3-3-----3-|

E-3-3-3-----|-------------8-8-8-8-8-8-8-|---0-----5-7-10-----------|-12-|
B-1-1-1-3-1-|-3-----5-3---6-6-6-6-6-6-6-|---5-5-3-3-5--8-----------|-10-|
G-------0---|-0-----2---0-5-5-5-5-5-5-5-|---2-2-0------------------|----|
D-3-3-2-0-2-|---------------------------|--------------------------|----|
A---------3-|---------------------------|----------------0-0-0-0-0-|----|
E-----------|---3-3---------------------|--------------------------|----|

E--10-10--9--9-7-7-----------|-0-----5-7-10---------12--10-10--9--9-7-7-|
B---8----10-10-8-8-8---------|-5-5-3-3-5--8---------10---8----10-10-8-8-|
G------------------9---------|-2-2-0------------------------------------|
D----------------------------|------------------------------------------|
A--------------------0-0-0-0-|--------------0-0-0-0---------------------|
E----------------------------|------------------------------------------|

E-----------3----------------||--------------------------------|----------|
B-8---------3-3--------------||*-----9b10--r7-9~----------9----|-----9b10-|
G-9-----4---0-2-2---4---4----||----8---------------8--/11---9~-|---8------|
D-------4-5-0-0-2---4---4----||--9---------------9-------------|-9--------|
A-------2-3-2---0-0-2-2-2----||*-------------------------------|----------|
E-----------3----------------||--------------------------------|----------|

E-------------------------|-----------------------10-----------|--------|
B--r7-9~--11b12--10-9-10~-|-----------10----12b14----10b12--r8~|--------|
G-------------------------|--11-9-97--------------------------|-11-9-9--|
D-------------------------|------------------------------------|--------|
A-------------------------|------------------------------------|--------|
E-------------------------|------------------------------------|--------|

E----------10-13b14------15-15~---|-10~--15---------10-------|-10~--15-|
B---10----------------------------|---------13~--10----------|---------|
G-7-------------------------------|-----------------------9~-|---------|
D---------------------------------|--------------------12----|---------|
A---------------------------------|--------------------------|---------|
E---------------------------------|--------------------------|---------|

E---------10-------|-12~-17---------12--------|--------|-12~--14-14b16-|
B-13~--10----------|--------15~--12-----------|--------|---------------|
G---------------9~-|----------------------11~-|--------|---------------|
D------------12----|-------------------14-----|--------|---------------|
A------------------|--------------------------|--------|---------------|
E------------------|--------------------------|--------|---------------|

                                             2nd time

E------19-17~---------|-----3----------------||------------------------|
B---------------------|-----3-3-------------*||------------------------|
G---------------------|-4---0-2-2---4---4----||-----------0------------|
D---------------------|-4-5-0-0-2---4---4----||-------4/5--------------|
A---------------------|-2-3-2---0-0-2-2-2---*||-2-4/6-------5/7-10-7/9-|
E---------------------|-----3----------------||------------------------|

E-------------19~---------------19b21---r----19----|-17~-----16h17p16-14-|
B--------------------------------------------------|---------------------|
G-----------------------------------------16----16-|---------------------|
D--------------------------------------------------|---------------------|
A-12-----------------------------------------------|---------------------|
E--------------------------------------------------|---------------------|

E|----------------|-------------14-15-16-17-16-15-14-------16-14-------|
B|-17b19----------|-14-15-16-17----------------------17-14-------17-14-|
G|----------------|----------------------------------------------------|
D|----------------|----------------------------------------------------|
A|----------------|----------------------------------------------------|
E|----------------|----------------------------------------------------|

E|----14----------------------------------------------------------------|
B|-17----17-16-15-14----------------------------------------------------|
G|-------------------16-15-14-13----------13-14-15-16-15-14-13----------|
D|-------------------------------16-14-16----------------------16-14-16-|
A|----------------------------------------------------------------------|
E|----------------------------------------------------------------------|

E|-------------------|------------------------------------------------|
B|-------------------|--------------------10-7--r---------------------|
G|-13----------------|-------9~----7-9b11--------7---7/9-9~-----------|
D|----16-15-14-13----|-----------------------------9------------------|
A|----------------16-|-12-12------------------------------------------|
E|-------------------|------------------------------------------------|

E|--------------7-10-9-8-7---------8h9---------7---------|---------9-10-|
B|------------8------------10-10p7-----10-7h10---10~-----|-8-10-12------|
G|--------7-9--------------------------------------------|--------------|
D|------9------------------------------------------------|--------------|
A|-7-10--------------------------------------------------|--------------|
E|-------------------------------------------------------|--------------|

E|-11-12-11-10-9------10-9-------12-10-------10-10-------12-12-------14-|
B|---------------12-9------13-10-------13-10-------10-10-------10-10----|
G|----------------------------------------------------------------------|
D|----------------------------------------------------------------------|
A|----------------------------------------------------------------------|
E|----------------------------------------------------------------------|

E|-14-------15-15-------15b17---|--------------------------------------|
B|----10/12-------12-12----------|-3~-1~-------------------------------|
G|-------------------------------|-------3-0---------------------------|
D|-------------------------------|-----------3-0-----------------------|
A|-------------------------------|---------------3b4--r1-2-------------|
E|-------------------------------|-------------------------2~----------|

E|----------------------------------------------------------|-------3---|
B|---------------------------------3-3-3-3-3-3--------------|-----3---6-|
G|-------------------3-4-5-6-5-6b7-------------5p3p0--------|-5b7-------|
D|-------------3-4-5---------------------------------3-3~---|-----------|
A|-----0-3-4-5----------------------------------------------|-----------|
E|-2/4------------------------------------------------------|-----------|

E|---------3-----------3-----------------------------------------------|
B|-3-----3---6-3-----3---6-5-4-3-----5-3-------3-----------------------|
G|---5b7---------5b7-------------6-3-----6-5-6---6-5-4-3---3-4-5-6-5-4-|
D|-------------------------------------------------------5-------------|
A|---------------------------------------------------------------------|
E|---------------------------------------------------------------------|

E|---------------------|------------------------------------------------|
B|---------------------|------------------------------------------------|
G|-3-------------------|-----------2~-----------4-5-6-7-6-5-4-----6-4---|
D|---5-4-3-2-------2---|-------2-4--------4/5-7---------------7-4-----7-|
A|-----------5-3-5---0-|---2/4------------------------------------------|
E|---------------------|------------------------------------------------|

E|-----------------|------------------------7-8-9-10-9-8-7------10-9----|
B|-----------------|-----------------7-8-10----------------12-9------11-|
G|---7-4-----7b9---|---------6-7-8-9------------------------------------|
D|-4-----7-4-------|----------------------------------------------------|
A|-----------------|----------------------------------------------------|
E|-----------------|----------------------------------------------------|

E|---12------14-14-------15-15----14p12------------------------------18-|
B|-9----9-10-------10-12-------12----------------12-13-14-15-16--/19----|
G|--------------------------------------12-14-15------------------------|
D|----------------------------------------------------------------------|
A|----------------------------------------------------------------------|
E|----------------------------------------------------------------------|

                        2nd time

E|-18-18-20b21--r21~-----|---------------------------------------------|
B|-----------------------|---------------------------------------------|
G|-----------------------|--------------------------------4-4----------|
D|-----------------------|-------4/5-5--------------------4-4-2--------|
A|-----------------------|-2-4/6-------5/7-10-7/9-12--0-0-2-2-2--------|
E|-----------------------|------------------------------------0--------|

E|------|
B|------|
G|------|
D|------|
A|------|
E|------|





Comments


Popular Dixie Dregs tabs & chords
Bash Tabs
Bloodsucking Leeches Tabs
Cruise Control Tabs
Good Intentions Tabs
Ice Cakes Tabs
Leprechuan Promenade Tabs
Pride O The Farm Tabs
Punk Sandwich Tabs
Refried Funky Chicken Tabs
Twiggs Approved Tabs


Song lyrics



↑ Back to top | Tablatures and chords are parodies/interpretations of the original songs. You may use it for private study, scholarship, research or language learning purposes only
© 2014 AZChords.com Contact us | Privacy policy | DMCA | Add/correct tabs | Request tabs | Top 50 tabs