>
 >
Good Intentions

Good Intentions Guitar Tabs

Dixie Dregs - Good Intentions chords, tabs, tablatures, lyrics

Guitar lessons | Add/correct | Request | Top 50 tabs Artists:  A B C D E F G H I J K L M N O P Q R S T U V W X Y Z 0-9

Good Intentions Guitar Tabs – Dixie Dregs

CD, Sheet music, Poster

Do you like Good Intentions? Share with your friends now
Tabs
E|-----19~--17----|---------------|--------------14----|---------------|-------|
B|--17-17~-----19~|---17-15-------|---------17~-----15~|--17-17~-------|--2-3--|
G|----------18-19~|-----------18~-|------16------18----|--16-----------|--2-4--|
D|--19------------|---16-17---19~-|-9/14----19~-----17~|-----19~-------|--2-4--|
A|----------------|---------------|------19------------|---------------|-------|
E|----------------|---------------|--------------------|---------------|-------|

E|----|---------|----------|--------------|------------|-----------|-----------|
B|----|---------|---2-3----|---3--3--3----|---2-3------|-----------|------2-3--|
G|----|--4------|---2-4----|---2--4--2----|---2-4------|--4--------|------2-4--|
D|----|--5-7----|---2-4----|---0--0--0----|---2-4------|--5-7------|------2-4--|
A|----|--5-5----|----------|--------------|------------|--5-5------|-----------|
E|----|---------|----------|---2--3--2----|------------|-----------|-----------|

E|--|----------------------------|----9---------9b10--9-------|-----------------|
B|--|-----------------10-8-7-----|------10--------------12p10-|-10b11--10--10~--|
G|--|-----7----7-------------9-7-|-12------9------------------|-----------------|
D|--|---7--------7---------------|-----------11---------------|-----------------|
A|--|-9-----10-------------------|----------------------------|-----------------|
E|--|--------------10------------|----------------------------|-----------------|

E|----------------|---------------|---------------------------|----9---------9b10--|
B|----------------|---------------|------7---------8----------|------10------------|
G|----11b12--r-p9-|--9~-9~--(9)--|----------------------7----|-12------9-----------|
D|----------------|---------------|----7-----7---9-----7------|-----------11-------|
A|----------------|---------------|--5-----4---7-----9-----10-|--------------------|
E|----------------|---------------|---------------------------|--------------------|

E|-9-------|----------------------|-12-----------------------------|------------|
B|---12p10-|-10b12-10--10~-----12-|----15b17------------10-8-7-----|------------|
G|---------|----------------12----|----------7----7---9--------9-7-|------7-----|
D|---------|----------------------|-----7-----------7--------------|----------9-|
A|---------|----------------------|--9---------10------------------|---10-------|
E|---------|----------------------|--------------------------------|-7------8---|

E------------------|----------16---------------------------|-------------------|
B------------------|-14-15-17----------14----------14b15--r|-------------------|
G------------------|-------------16-14----------14---------|-16-------14-16----|
D-7----------------|-------------------------16------------|-------16-------18-|
A------10-9-7------|----------------------17---------------|----17-------------|
E---10--------10-7-|---------------------------------------|-------------------|

E|-------------------|-------------------------|-------------------------|-------|
B|-------------------|-------------------------|-------------------------|-------|
G|-------------------|-------------------------|-------------------------|----16-|
D|-14----------16-14-|-------------------------|---------------7-5-4-----|-14----|
A|-------14-17-------|---0---0---0---7-5-4---0-|---0---0---5-4-------7-5-|-------|
E|----15-------------|-5---3---7---5-------7---|-3---5---7---------------|-------|

E|-14-16-------------------------|-------------------------------------|-------|
B|-------17----------17----------|-15-14-------------------------------|-------|
G|----------14----13-------------|-------------18----------------------|-------|
D|----------------------16----16-|----------14-------18-------16-18-14-|-------|
A|-------------16----------14----|----------------14----14-17----------|---0---|
E|-------------------------------|-------17----------------------------|-5---3-|

E|-------------------|-------------------------|----------19~--17----|----------|
B|-------------------|-------------------------|----17----17~-----19~|---17-15--|h
G|-------------------|-------------------------|-------16------18-19~|----------|
D|-------------------|---------------7-5-4-----|----19---------------|---16-----|
A|-0---0---7-5-4---0-|---0---0---5-4-------7-5-|---------------------|----------|
E|---7---5-------7---|-3---5---7---------------|-0-------------------|----------|

E-------------|---------------14----|---------------------|--------19~--17--------|
B-17p15-------|----------17~-----15~|--17--17~-----16-14--|--17----17~--------19~-|
G---------18~-|------16-------18----|--16-----------------|-----16------18-18-19~-|
D----17---19~-|-9/14-----19~-----17~|------19~-----17-16--|--19-------------------|
A-------------|------19-------------|---------------------|-----------------------|
E-------------|---------------------|---------------------|-----------------------|

E-|------------------|-----------------14----|---------------|-----------------|
B-|---17----15-------|------------17~-----15~|--17-17~-------|-----------------|
G-|--------------18~-|------16---------18----|--16-----------|-----------------|
D-|---16-18-17---19~-|-9/14----14-19~-----17~|-----19~-------|---------2-------|
A-|------------------|------19---------------|---------------|-------------5---|
E-|------------------|-----------------------|---------------|-0-2-3-4---4---3-|

E|---------|-------------------------|-----------------------|-----------------|
B|---------|-------------------------|-----------------------|-----------------|
G|---------|-------------------------|-------2---0-----------|---------3-2-1---|
D|---------|-----------3-2-0---------|-------------------5-4-|-3-----3---------|
A|-----5-4-|-3---------------0-1-2-3-|---------5---0-1-2-----|-----5-----------|
E|-2-0-----|---0-1-2-3---------------|-2-3-4-5---------------|---6-----------0-|

E|---------|-------------------------|-------------------------|---------------|
B|-------0-|-------------------------|-------------------------|---------------|
G|-----1---|---------5-4-3-------2---|-1-----1-9-8-7-------7---|-5-----5---4---|
D|---2-----|-------------------3---3-|-----3-------------8---8-|---------------|
A|-2-------|-------7---------3-------|---4-------------8-------|-----3---------|
E|---------|-3-4-5---------1---------|---------------6---------|---1-----1---3-|

E|-----------|---------------|----------------------|--------------------|--5---|
B|-----------|---------------|----------------------|-----------------7--|----8-|
G|-2---1---0-|---------------|--{16}b18-------------|-14-{14}------------|------|
D|-----------|---4---3-------|------------14-17b19--|-----------x-x------|------|
A|---0---2---|-3---5---6-7---|----------------------|-----------x-x------|------|
E|-----------|-------------0-|----------------------|--------------------|------|

E|-------------------|--------------------------|---------------|---------------|
B|-7-6-5-------------|--5-7-5-------------------|---------------|---------------|
G|-------8-5h6-7-7b8-|--------{5}b6--------4b5--|---------------|---------------|
D|-------------------|---------------4---4------|-7~------------|---------------|
A|-------------------|-----------------7--------|---------------|---------------|
E|-------------------|--------------------------|-----x-x-x-7b8-|--r-5-----5/6/-|

E|---------|-----------------------|------------------|--------------------------|
B|---------|-----------------------|--------10--------|--------------------------|
G|---------|-----------------------|----9------8p7----|---75---------------------|
D|---------|-9b10-----------7~-----|-x-------------10-|-7-----7-9-8-5------------|
A|---7-7-7-|------------9-9----{9}|-x----------------|---------------7-9-0-6-0---|
E|-7-------|------7-7-7------------|-x----------------|--------------------------|

E|---|---------------------------|-------------------|---------------------12-|--|
B|---|---------------------------|-------------------|-----------15b17--------|--|
G|---|---------------------------|-------------------|-{5}b7-----15b16--------|--|
D|---|---------4-----------------|-------------------|------------------------|--|
A|-5-|-7-3-4-5---32-------------|-------5-5-5-5-5-5-|------------------------|---|
E|---|---------------5-0-{3}b5-0-|-{5}---------------|------------------------|--|

E|----12----12-------------12----------12-|--------------------------------------|
B|-16----15----13-15-15b17----15-13-15----|--------------------------------------|
G|----------------------------------------|-14~----------14-15-16-17-16-15-14----|
D|----------------------------------------|-----16-16-16----------------------17-|
A|----------------------------------------|--------------------------------------|
E|----------------------------------------|--------------------------------------|

E|-------------------|--------------------------------|---------------------17--|
B|-------------------|--------------------------------|---------------17-20-----|
G|-------------------|--------------------------------|---------17-18-----------|
D|-16-14-------------|--------------------------------|-------------------------|
A|-------17-15-15-17-|--15b16----{17}b19----15b16-----|-------------------------|
E|-------------------|-----------------------------17-|--2/14-------------------|

         Synth Solo

E|-------||--------------------------|-------------------------|---------------|
B|-20b22-||*-------------------------|-------------------------|---------------|
G|-------||--------------------------|-------------------------|---------------|
D|-------||------------4---2---------|-------2---2---------0---|-----------4---|
A|-------||*-------------------------|-----------------------4-|-2-2-2-2-2---2-|
E|-------||--2-2-2-2-2---2---2-2-2-2-|-4-4-4---4---5-5-5-5-----|---------------|

                                                  Violin Solo

E|-----------|--------------------------||---------||---------------------------|
B|-----------|-------------------------*||---------||*--------------------------|
G|-----------|-------2---2--------------||---------||-------------4---2---------|
D|-2---------|---------------------2-4--||---------||---------------------------|
A|---2-2-2-2-|-4-4-4---4---5-5-5-5-----*||---------||*--------------------------|
E|-----------|--------------------------||---------||---0-0-0-0-0---0---0-0-0-0-|

E-|-------------------------|-------------------------|-------------------------|
B-|-------------------------|-------------------------|-------------------------|
G-|-------2---2---------0---|-----------6---4---------|-------9---9-------------|
D-|-----------------------4-|-------------------------|---------------------0---|
A-|-------------------------|-------------------------|-----------------------7-|
E-|-2-2-2---2---3-3-3-3-----|-5-5-5-5-5---5---5-5-5-5-|-7-7-7---7---9-9-9-9-----|

E--||-||--------------------------|-------------------------|-------------------|
B-*||-||*-------------------------|-------------------------|-------------------|
G--||-||------------4---2---------|-------2---2-------------|-----------6---4---|
D--||-||--------------------------|-------------------------|-------------------|
A-*||-||*-------------------------|-------------------------|-------------------|
E--||-||--0-0-0-0-0---0---0-0-0-0-|-2-2-2---2---3-3-3-4-4-4-|-5-5-5-5-5---5---5-|

                                   X4

E|-------|--------------------------||-------19~--17----|----------------------|
B|-------|-------------------------*||-17----17~-----19~|---17-15h17p15--------|
G|-------|-------9---9--------------||----16------18-19~|-----------------18~--|
D|-------|---------------------0----||-19---------------|---16-------17---19~--|
A|-------|-----------------------7-*||------------------|----------------------|
E|-5-5-5-|-7-7-7---7---9-9-9-9------||------------------|----------------------|

E|---------------14----|---------------------|-------14~----12--------|---------|
B|----------17~-----15~|--17--17~-----16-14--|-12----12~--------14~---|-12--10--|h
G|------16-------18----|--16-----------------|----11--------13--14~---|---------|
D|-9/14-----19~-----17~|------19~-----17-16--|-14---------------------|-11------|
A|------19-------------|---------------------|------------------------|---------|
E|---------------------|---------------------|------------------------|---------|

E|------------|------------9------|-----------------|-|----------|---------|---|
B|-12p10------|-----12--------10--|-10--12--12~-----|-|--2-3-----|---------|---|
G|--------13~-|-11--------13------|-----11----------|-|--2-4-----|--4------|---|
D|----12--14~-|-----14--------12--|-12------14~-----|-|--2-4-----|--5-7----|---|
A|------------|-14----------------|-----------------|-|----------|--5-5----|---|
E|------------|-------------------|-----------------|-|----------|---------|---|

E|--------|--------------|------------|-----------|------------|-----------------|
B|-2-3----|---3--3--3----|---2-3------|-----------|------2-3---|-----------------|
G|-2-4----|---2--4--2----|---2-4------|--4--------|------2-4---|-----7----7------|
D|-2-4----|---0--0--0----|---2-4------|--5-7------|------2-4---|---7--------7----|
A|--------|--------------|------------|--5-5------|------------|-9-----10--------|
E|--------|---2--3--2----|------------|-----------|------------|--------------10-|

E|------------|----9---------9b10--9-------|--------------------------------|--|
B|-10-8-7-----|------10--------------12p10-|-10b11--10--10~-----------------|--|
G|--------9-7-|-12------9------------------|--------------------11b12--r-p9-|--|
D|------------|-----------11---------------|--------------------------------|--|
A|------------|----------------------------|--------------------------------|--|
E|------------|----------------------------|--------------------------------|--|

E|--------------|---------------------------|----9---------9b10-9-------|--------|
B|--------------|------7---------8----------|------10-------------12p10-|-10b12--|
G|-9~-9~--(9)--|----------------------7----|-12------9-----------------|---------|
D|--------------|----7-----7---9-----7------|-----------11--------------|--------|
A|--------------|--5-----4---7-----9-----10-|---------------------------|--------|
E|--------------|---------------------------|---------------------------|--------|

E|----------12-14-|-17-16b17-------------------------|--------------------------|
B|-10-10~---------|-----------------------10~8~7~----|-------------------7------|
G|----------------|------------7~---7~--9~-------9~7~|------7-----------------7-|
D|----------------|----------7~-------7~-------------|----------9-7----7--------|
A|----------------|-----9--------10~-----------------|---10----------------10---|
E|----------------|----------------------------------|-7------8-----10----------|

E|---|-------------|-------19~--17----|------------------|------|
B|---|-------------|-17----17~-----19~|---17-15---17--17~|------|
G|-9-|-------------|----16------18-19~|---------------16~|------|
D|---|-------------|-19---------------|---16-17---19-----|------|
A|---|-0-7-5-------|------------------|------------------|------|
E|---|-------3-7-0-|------------------|------------------|------|





Comments


Popular Dixie Dregs tabs & chords
Bash Tabs
Cruise Control Tabs
Gina Lola Breakdown Tabs
Great Spectacular Tabs
Leprechuan Promenade Tabs
Odyssey Tabs
Punk Sandwich Tabs
Refried Funky Chicken Tabs
Road Expense Tabs
Twiggs Approved Tabs


Song lyrics



↑ Back to top | Tablatures and chords are parodies/interpretations of the original songs. You may use it for private study, scholarship, research or language learning purposes only
© 2014 AZChords.com Contact us | Privacy policy | DMCA | Add/correct tabs | Request tabs | Top 50 tabs