>
 >
Gina Lola Breakdown

Gina Lola Breakdown Guitar Tabs

Dixie Dregs - Gina Lola Breakdown chords, tabs, tablatures, lyrics

Guitar lessons | Add/correct | Request | Top 50 tabs Artists:  A B C D E F G H I J K L M N O P Q R S T U V W X Y Z 0-9

Gina Lola Breakdown Guitar Tabs – Dixie Dregs

CD, Sheet music, Poster

Do you like Gina Lola Breakdown? Share with your friends now
Tabs
Gina Lola Breakdown Tab by Dixie Dregs

E-||-------------------------------||--------------|---------------------|
B-||*-----------------------------*||--------------|---------------------|
G-||-------------------------------||--------------|--------2-2--4b6-4b6-|
D-||-------------------------------||-2~-----------|-2~---4--------------|
A-||*-----0-0-0-0-0-0-0-0-0-0-0-0-*||--------------|---------------------|
E-||--3b4--------------------------||--------------|---------------------|

E-----|-------------------2---------|----------------------------------|
B-----|-----3-5~--4b5-4b5-----------|--------2-------------------3--3--|
G-----|-4b5-----------------5p4p2-2-|-2-2--4----5-4-2---5-4-2----0--0--|
D-----|-----------------------------|-----------------2-------2--5--5--|
A-----|-----------------------------|----------------------------0--0--|
E-----|-----------------------------|----------------------------3--3--|

    Riff C

E---|-------------------------------|-----------------------1-------1---|
B-3-|-----1-------------------------|---------------------3---3---1---1-|
G-0-|-3b4---2-0-----------0---------|-----------0---0-2-3-------2-------|
D-5-|-------------0-2-2h3---1-0-----|-----0-0h2---2---------------------|
A-0-|-----------3---------------3---|---3-------------------------------|
E-3-|-------------------------------|-3---------------------------------|

E---|----------3------------------------------|------------------------|
B---|------------3b4-3-1----------------------|------------------------|
G-0-|-4b5-4b5----------------------0-3-2-0----|-------------0----------|
D---|--------------------------------------3--|-5---0-2-2h3---1-0------|
A---|------------------------0-2-3------------|---3---------------3----|
E---|--------------------3-3------------------|------------------------|

       Riff D

E------|-------------------------------|------------------------------|
B------|-------------------------------|------------------------------|
G------|-------------------------------|---------------------------0--|
D------|-------------------------------|-----------------------0h2----|
A------|-----0-0-x-----0-----0-0-------|-----0-0-x-----0-3-x-5--------|
E------|-3b4-----x-3h4---3b4-----2b3-0-|-3b4-------3h5----------------|

E------------------------------|----------------------|-----------------|
B------------------------------|----------------------|-----1-----------|
G------------------------------|----------------2-5/7-|-3b4---2-0-------|
D-----0-0------0-----0-0-------|----------2-3-5-------|-------------0-2-|
A-3b4------3h4---3h4-----1-0---|--3-2-3-5-------------|-----------3-----|
E----------------------------3-|----------------------|-----------------|

E---------------|-----------------------1-------1-----|----------3-----|
B---------------|---------------------3---3---1---1---|------------3b4-|
G-----0---------|-----------0---0-2-3-------2-------0-|-4b5-4b5--------|
D-2h3---1-0-----|-----0-0h2---2-----------------------|----------------|
A-----------3---|---3---------------------------------|----------------|
E---------------|-3-----------------------------------|----------------|

                                                  Riff E

E------------------------|------------------------|-------------10-----|
B-3-1--------------------|------------------------|-10-8-7-8-10--------|
G-------------0-3-2-0----|-------------0----------|----------------7-9-|
D---------------------3--|-5---0-2-2h3---1-0------|--------------------|
A-------0-2-3------------|---3---------------3----|--------------------|
E-----3------------------|------------------------|--------------------|

E-|------------------|-----------------|---------------|---------------|
B-|-7------7---------|-----------------|-----5-7-5-----|---------7-8-7-|
G-|---9b11---9-7-----|-----4-----4-7-4-|-7b9-------6---|-7-6-7-9-------|
D-|--------------9-7-|-5-7---7b9-------|-------------7-|---------------|
A-|------------------|-----------------|---------------|---------------|
E-|------------------|-----------------|---------------|---------------|

E|---|-----------------|--------------------|-------------|-------------|
B|---|---7-------------|--------------------|-------------|-8-7-----7---|
G|-9-|-7---9-7---7-----|--------------------|----9-11-9---|-----9-7---9-|
D|---|---------9---9-7-|----7-9--9-11-12-11-|-12----------|-------------|
A|---|-----------------|-10-----------------|-------------|-------------|
E|---|-----------------|--------------------|-------------|-------------|

E|-----|----------7------7-|-8-7-------7-------|-7--------------|------|
B|-----|-----7-10---8-10---|-----8---8---10b12-|---10-8---------|------|
G|-7-6-|---7---------------|-------9-----------|--------7~------|------|
D|-----|-9-----------------|-------------------|----------------|------|
A|-----|-------------------|-------------------|----------------|------|
E|-----|-------------------|-------------------|----------------|------|

E|-------------|-------5-7-5-----|-----------|-----------------|--------|
B|-------------|---6-8-------8-6-|-5---------|---5-----3--3--3-|------1-|
G|-------------|-5---------------|-----------|---------0--0--0-|--3b4---|
D|-------------|-----------------|-7---------|-0h7-----5--5--5-|--------|
A|-------------|-----------------|-0---------|---0-----0--0--0-|--------|
E|-------------|-----------------|-5---------|---5-----3--3--3-|--------|

E-----------------------|-----------------------1-------1-----|---------|
B-----------------------|---------------------3---3---1---1---|---------|
G-2-0---------0---------|-----------0---0-2-3-------2-------0-|-4b5-4b5-|
D-------0-2-3---1-0-----|-----0-0h2---2-----------------------|---------|
A-----3-------------3---|---3---------------------------------|---------|
E-----------------------|-3-----------------------------------|---------|

E--3----------------------------|-----------------------------|-2b3-2b3-|
B----3b4-3-1--------------------|-----------------------------|---------|
G--------------------0-3-2-0----|-------------0---------------|---------|
D----------------------------3--|-5---0-2-2h3---1-0-----------|---------|
A--------------0-2-3------------|---3---------------3---------|---------|
E------------3------------------|-----------------------------|---------|

E-------------------|-2b3-2b3-------0-6---8----7--8~8~|-10b12-------8----|r
B-4---3-5-5b6-3--r--|---------4---3---7b8-9b10-8--8~8~|-------8--r-------|
G---5-------------5-|-----------5---------------------|------------------|
D-------------------|---------------------------------|------------------|
A-------------------|---------------------------------|------------------|
E-------------------|---------------------------------|------------------|

E--------------|-------------------------9-------------------------------|
B-11-10~-------|------8-8-8--r---8h9-11-12b13-12--r12~----11/12----------|
G--------------|-9h10---------10--------------------------------13-------|
D--------------|---------------------------------------------------14-13-|
A--------------|---------------------------------------------------------|
E--------------|---------------------------------------------------------|

            Piano solo                volume swells

E-------------|-----|------|-------|------|-------10-12----10--8-8-----|
B-------------|-----|------|-------|------|-13/14----------11-10-8b10--|
G-------------|-----|------|-------|------|----------------------------|
D-12----------|-----|------|-------|------|----------------------------|
A----14-15-16-|-----|------|-------|------|----------------------------|
E-------------|-----|------|-------|------|----------------------------|

E--|-8~----------10--8-8--------|---------------------|-----------------|
B--|-8~----------11-10-8--10-8--|---------------------|-----------------|
G--|----------------------10-9--|--9~---------7-5~----|-4--r2-4-0-5~----|
D--|----------------------------|-10~---------8-7~----|-5---3-----5~----|
A--|----------------------------|---------------------|-----------------|
E--|----------------------------|---------------------|-----------------|

E------|--15----------------------|-5--r3-5-3---------------------|-5b6-|
B------|-----16-17----------------|--------------------------4b---|-----|
G-(5)/-|-----------17----15-17----|----------------------5------5-|-----|
D-(5)/-|--------------17----------|------------5-5-5-3------------|-----|
A------|--------------------------|--------------------6----------|-----|
E------|--------------------------|-------------------------------|-----|

E--3----------------------------------------------------|-8-5------------|
B------3b---3-------------------------------------------|-----8----------|
G----0----0---x-5-2b-0-2--------------------------------|-------8-7-5----|
D------------------------1b-1b--------------------------|-------------8--|
A------------------------------3-31----------0-5-6-3---|-----------------|
E------------------------------------x-x-x-3b-----------|----------------|

E-----------------------------------------|----------------------------|
B-----------------------------------------|-----1----------------------|
G-----------------------------------------|-3b4---2-0---------0--------|
D-5-7-5-----5-----------------------------|-------------0-2-3---1-0----|
A-------8b9---8-6-7-3-----------0-1-2-3---|-----------3-------------3--|
E---------------------x-0-2-3-4-----------|----------------------------|

E--|-------------------------1-------1------|----------3---------------|
B--|-----------------------3---3---1---1----|------------3b4-3-1-------|
G--|-------------0---0-2-3-------2-------0--|-4b5-4b5------------------|
D--|-------0-0h2---2------------------------|--------------------------|
A--|-0---3----------------------------------|----------------------0-2-|
E--|---3------------------------------------|--------------------3-----|

                                         Drum Solo

E--------------|---------------------------|-----------|--------------|
B--------------|---------------------------|-----------|--------------|
G---0-3-2-0----|-----------0---------------|-----------|--------------|
D-----------3--|-5---0-2-3---1-0-----------|-----------|--------------|
A-3------------|---3-------------3---------|-----------|--------------|
E--------------|---------------------------|-----------|--------------|

E------------8-----|-----------------|-----------------|---------------|
B--8-6-5-6-8-------|-5-----5---------|-----------------|-----3-5-3-----|
G--------------5-7-|---7b9---7-5-----|-----2-----2-5-2-|-5b7-------4---|
D------------------|-------------7-5-|-5b7---5b7-------|-------------5-|
A------------------|-----------------|-----------------|---------------|
E------------------|-----------------|-----------------|---------------|

E-|-----------------|---------------------------------|-----------------|
B-|---------5-6-5---|---5-----------------------------|-5-------6-5-6-8-|
G-|-5-4-5-7-------7-|-5---7-5---5-----------4-5-4---5-|---7-5-7---------|
D-|-----------------|---------7---7-5-7-5-7-------7---|-----------------|
A-|-----------------|---------------------------------|-----------------|
E-|-----------------|---------------------------------|-----------------|

E-|-------------10-----|------------------|-----------------|-----------|
B-|-10-8-7-8-10--------|-7------7---------|-----------------|-----5-7-5-|
G-|----------------7-9-|---9b11---9-7-----|-----4-----4-7-4-|-7b9-------|
D-|--------------------|--------------9-7-|-5-7---7b9-------|-----------|
A-|--------------------|------------------|-----------------|-----------|
E-|--------------------|------------------|-----------------|-----------|

E|-----|-----------------|-----------------|--------------------|------|
B|-----|---------7-8-7---|---7-------------|--------------------|------|
G|-6---|-7-6-7-9-------9-|-7---9-7---7-----|--------------------|----9-|
D|---7-|-----------------|---------9---9-7-|----7-9--9-11-12-11-|-12---|
A|-----|-----------------|-----------------|-10-----------------|------|
E|-----|-----------------|-----------------|--------------------|------|

E|--------|-----------------|----------7------7-|-8-7-------7-------|-7-|
B|--------|-8-7-----7-------|-----7-10---8-10---|-----8---8---10b12-|---|
G|-11-9---|-----9-7---9-7-6-|---7---------------|-------9-----------|---|
D|--------|-----------------|-9-----------------|-------------------|---|
A|--------|-----------------|-------------------|-------------------|---|
E|--------|-----------------|-------------------|-------------------|---|

E|--------------|------------------|-------5-7-5-----|-----------|-----|
B|-10-8---------|------------------|---6-8-------8-6-|-5---------|---5-|
G|------7~------|------------------|-5---------------|-----------|-----|
D|--------------|------------------|-----------------|-7---------|-0h7-|
A|--------------|------------------|-----------------|-0---------|---0-|
E|--------------|------------------|-----------------|-5---------|---5-|

E|---------------|-----------------------------|-----------------------|
B|-------3--3--3-|-----1-----------------------|---------------------3-|
G|-------0--0--0-|-3b4---2-0---------0---------|-----------0---0-2-3---|
D|-------5--5--5-|-------------0-2-3---1-0-----|-----0-0h2---2---------|
A|-------0--0--0-|-----------3-------------3---|---3-------------------|
E|-------3--3--3-|-----------------------------|-3---------------------|

E-1-------1-----|----------3----------------------------|---------------|
B---3---1---1---|------------3b4-3-1--------------------|---------------|
G-----2-------0-|-4b5-4b5--------------------0-3-2-0----|-----------0---|
D---------------|------------------------------------3--|-5---0-2-3---1-|
A---------------|----------------------0-2-3------------|---3-----------|
E---------------|--------------------3------------------|---------------|

E-------------|-------------------------------|--------------------------|
B-------------|-------------------------------|--------------------------|
G-------------|-------------------------------|--------------------------|
D-0-----------|-------------------------------|-----------------------0--|h
A---3---------|-----0-0-x-----0-----0-0-------|-----0-0-x-----0-3-x-5----|
E-------------|-3b4-----x-3h4---3b4-----2b3-0-|-3b4-------3h5------------|

E-----|------------------------------|------------------------|---------|
B-----|------------------------------|------------------------|-----1---|
G---0-|------------------------------|----------------2-5b7---|-3b4---2-|
D-2---|-----0-0------0-----0-0-------|----------2-3-5---------|---------|
A-----|-3b4------3h4---3h4-----1-0---|--3-2-3-5---------------|---------|
E-----|----------------------------3-|------------------------|---------|

E---------------------|-----------------------1-------1-----|----------|
B---------------------|---------------------3---3---1---1---|----------|
G-0---------0---------|-----------0---0-2-3-------2-------0-|-4b5-4b5--|
D-----0-2-3---1-0-----|-----0-0h2---2-----------------------|----------|
A---3-------------3---|---3---------------------------------|----------|
E---------------------|-3-----------------------------------|----------|

E-3----------------------------|---------------------|----10-11-12-----|
B---3b4-3-1--------------------|---------------------|-13--------------|
G-------------------0-3-2-0----|-----------0---------|-------------0-2-|
D---------------------------3--|-5---0-2-3---1-0-----|-----------------|
A-------------0-2-3------------|---3-----------------|-----------------|
E-----------3------------------|---------------------|-----------------|

E|-----0-1-2-3----------------------------|
B|-------------------------1-3-x-4-x-3-1--|
G|-4-5-----------0-1-2-3-4----------------|
D|----------------------------------------|
A|----------------------------------------|
E|----------------------------------------|





Comments


Popular Dixie Dregs tabs & chords
Aftershock Tabs
Bash Tabs
Bloodsucking Leeches Tabs
Cruise Control Tabs
Great Spectacular Tabs
Holiday Tabs
Ice Cakes Tabs
Leprechuan Promenade Tabs
Little Kids Tabs
Refried Funky Chicken Tabs


Song lyrics



↑ Back to top | Tablatures and chords are parodies/interpretations of the original songs. You may use it for private study, scholarship, research or language learning purposes only
© 2014 AZChords.com Contact us | Privacy policy | DMCA | Add/correct tabs | Request tabs | Top 50 tabs