>
 >
Bloodsucking Leeches

Bloodsucking Leeches Guitar Tabs

Dixie Dregs - Bloodsucking Leeches chords, tabs, tablatures, lyrics

Guitar lessons | Add/correct | Request | Top 50 tabs Artists:  A B C D E F G H I J K L M N O P Q R S T U V W X Y Z 0-9

Bloodsucking Leeches Guitar Tabs – Dixie Dregs

CD, Sheet music, Poster

Do you like Bloodsucking Leeches? Share with your friends now
Tabs
E|-----------------------|-----------------------|---------------------|
B|-----------------------|-----------------------|---------------------|
G|-----------------------|-----------------------|---------------------|
D|---------5-6-----------|-----------------------|---------5-6---------|
A|-------5-----7---5-7---|-------5-4-2-----------|-------5-----7---5-7-|
E|-0-6h7---------7-------|-0-3h4-------3-2-2-0---|-0-6h7---------7-----|

E|---|-0----------------------------|-----------------------|-----------|
B|---|------------------------------|-----------------------|-----------|
G|---|---3p2p0----------------------|-----------------------|-----------|
D|---|---------2-0------------------|---------5-6-----------|-----------|
A|---|-------------2-1-0---0--------|-------5-----7---5-7---|-------5-4-|
E|---|-------------------3---{3}~b5-|-0-6h7---------7-------|-0-3h4-----|

                                        Steve plays in 1st position

E|---------------|--------------------------------------------------|---|
B|---------------|--------------------------------------------------|---|
G|---------------|----------------------7b9-7-4---4-----------------|-6-|
D|---------------|--------5-6-------------------7---5-6-------------|-5-|
A|-2-------------|------------7---5-7-------------------7-5---------|-7-|
E|---3-2-2-0---0-|--6h7-7-------7---------------------------7-6-5-3~|---|

E|----12b13-10-9-10p9--------12b13-10b12-10-8-------|-------------------|
B|--------------------10----------------------10b11-|-------------------|
G|-7---------------------9~-------------------------|-------------------|
D|-7------------------------------------------------|-----------5-6-----|
A|-9------------------------------------------------|---------5~----7---|
E|--------------------------------------------------|--0~6h-7~--------7-|

E|---------|-----------------------|-----------14b15-12-------14b15-12~-|
B|-----8~8~|-----------------------|--------------------15--------------|
G|---------|-----------------------|------6-7--------------14-----------|
D|---------|-----------------------|------5-7---------------------------|
A|-5-7-----|-------5-4-2---2-------|------7-9---------------------------|
E|---------|-0-3h4-------3---2-0---|---3~-------------------------------|

E|-----15-15-12---------------------------|------------------------|----|
B|--------------15-14-12------------------|------------------------|----|
G|-----------------------15-14-12~--------|------------------------|----|
D|-----------------------------------14--|----------5-6-----------|-----|
A|----------------------------------------|--------5~----7---5-7---|----|
E|----------------------------------------|-0~6h-7~--------7-------|-0--|

E|---------------------||------------------------------------------|----|
B|---------------------||*-----------------------------------------|----|
G|---------------------||-----------------2---0h2p0----------------|----|
D|---------------------||---------------2---------------4-0p-2p0---|----|
A|-----5-4-2---2-------||*--------0-3-4-----4-------2-3----------3-|----|
E|-3h4-------3---2-0---||----3~------------------------------------|-3b-|

E|----------------------|----------------------------------|------------|
B|----------------------|----------------------------------|------------|
G|-------5-2---5--2-----|---------2---0h2p0----------------|----------5-|
D|-------------5b-------|-------2---------------4-0p-2p0---|------------|
A|-0-3-4-----0----------|-0-3-4-----4-------2-3----------3-|----0-3-4---|
E|------------------3b4-|----------------------------------|-3b---------|

                       solo 1

E|--------------------||----------8---8------------|--------------------|
B|---3---------------*||-----8-10-7b9-7b9-10-------|--------------------|
G|-6---0-5-3h4--------||-8h9-----------------9~----|-------------14-16--|
D|-----0-------5-----||---------------------------|----13-14-16---------|
A|-------------------*||---------------------------|-15-----------------|
E|--------------------||---------------------------|--------------------|

E-------------17-----------------------------------------|--------------|
B----15-16-17----------15--------------------------------|--------14-17-|
G-17-------------17b18----------14-----------------------|--15h17-------|
D-------------------------17b18-----------14-------------|--------------|
A----------------------------------17b18-----------------|--------------|
E--------------------------------------------15b16~------|--------------|

E-17----17------------12---------------|-----------8h9-0-1110------------|
B-16b18-16b18--13-----13b14------------|--------10-------1312------------|
G-----------------14~------------------|-8-9-11----------------12-11h12--|
D--------------------------------------|---------------------------------|
A--------------------------------------|---------------------------------|
E--------------------------------------|---------------------------------|

E-------------------------------------------|-----------------------|---|
B-9-----------------------------------------|-----------------------|---|
G-9---8-7-5b--6-----------------------------|-----------------------|---|
D---x-----------7-x-5-x-4-------------------|---------5-6-----------|---|
A-------------------------7-----------------|-------5-----7---5-7---|---|
E----------------------------6~-------------|-0-6h7---------7-------|-0-|

E|---------------------|-----------------------|-0---------------------|
B|---------------------|-----------------------|-----------------------|
G|---------------------|-----------------------|---3p2p0---------------|
D|---------------------|---------5-6-----------|---------2-0-----------|
A|-----5-4-2---2-------|-------5-----7---5-7---|-------------2-1-0---0-|
E|-3h4-------3---2-0---|-0-6h7---------7-------|-------------------3---|

E|------|------------------------|-------------------------|------------|
B|------|------------------------|-------------------------|------------|
G|------|------------------------|-------------------------|------------|
D|------|---------5-6------------|-------------------------|--------5-6-|
A|------|-------5-----7---5-7----|-------5-4-2---2---------|------5-----|
E|-3~b5-|-0-6h7---------7--------|-0-3h4-------3---2-0---0-|--6h7-------|

                                 cleaner tone

E|----------------------------|-14---------------|------------------------|
B|----------------------------|-14----3-3--------|---3----5b6-----5---3---|
G|-----------7b9-7-4---4------|-14----3-4-0-2~-0-|-3-4-0--5b6--r3-5-0-3b4-|
D|-------------------7---5----|-----------2------|-2---2------------------|
A|-7---5-7-----------------7--|------------------|------------------------|
E|---7------------------------|------------------|------------------------|

                   distorted

E--|-----------------------------------------|-------------------------|
B--|---3-----------3----1-----1-1-1-1--------|-------8-8~-10b11--------|
G--|-3-4-0-2~-0--3-4-0----3b5---------2b3-0--|-9b10--------------------|
D--|-----2-------2---------------------------|-------------------------|
A--|-----------------------------------------|-------------------------|
E--|-----------------------------------------|-------------------------|

E-|---------3-----5b7-3-----6b8--r-------|--------------8-8/10-15~-----|
B-|-----3-5---5-3-------5-3--------------|--------10b12----------------|
G-|-3-4----------------------------------|-----------------------------|
D-|--------------------------------------|-----------------------------|
A-|--------------------------------------|-----------------------------|
E-|--------------------------------------|-----------------------------|

E|--------|----------------------------15----18b19-18-|-----------------|
B|--------|----------15-------15-17-15----15----------|---3-----3-3-3-3-|
G|--------|----15h16----17b19-------------------------|-----5b7---------|
D|--------|-17----------------------------------------|-----------------|
A|--------|-------------------------------------------|-----------------|
E|--------|-------------------------------------------|-----------------|

           Keyboard Solo

E|-------------|--------------|-----------------------|---------------|
B|-3-3---------|--------------|---------7b8--r--7---5-|---------------|
G|-----4b5--r2-|-5-6---4--2---|-5-6-----7b8--r5-7---5-|-5-6---4--2----|
D|-------------|-4-7-4-5--4---|-4-7-4-------------7---|-4-7-4-5--4----|
A|-------------|--------------|-------7---------------|---------------|
E|-------------|--------------|-----------------------|---------------|

E|------------------|----------------|-----------------------|---------|
B|------------------|----------------|---------7b8--r--7---5-|---------|
G|-5-6--------------|---5-6---4--2---|-5-6-----7b8--r5-7---5-|-5-6---4-|
D|-4-7-4/5--------0-|---4-7-4-5--4---|-4-7-4-------------7---|-4-7-4-5-|
A|------------------|-0--------------|-------7---------------|---------|
E|---------8-7~-3---|----------------|-----------------------|---------|

E|------|------------------|--------------------0----------------------|
B|------|------------------|-------------------------------------------|
G|--2---|-5-6--------------|---------2b4----------3p2p0----------------|
D|--4---|-4-7-4/5--------0-|----------------------------2-0---5--4-2---|
A|------|------------------|--------------------------------2--------5-|
E|------|---------8-7~-3---|-------------------------------------------|

E|------------|-----7-------------------------------------|---------9-10--|
B|------------|-8--r--8-7---------------------------------|-13b17---------|
G|------------|-----------9-7-----------------------------|---------------|
D|------------|---------------9-75-7---5h6---------------|----------------|
A|-4-2--------|-----------------------7-----7~------------|---------------|
E|-----5-3~---|-------------------------------------------|---------------|

E|-9--------------------------------------------|-14b15-------12----12-|
B|---12-11-10-9---------------------------------|----------------12----|
G|--------------12-11-10-9----------------------|----------------------|
D|-------------------------12-11-10-9-----------|----------------------|
A|------------------------------------12~-------|----------------------|
E|----------------------------------------------|----------------------|

E|-12~-----------------------------------------12-13-14-15b17--------15-|
B|------------------------------------12-14-15--------------------------|
G|---------------------------11-13-14-----------------------------------|
D|------------------11-12-14--------------------------------------------|
A|---------11-12-14-----------------------------------------------------|
E|----------------------------------------------------------------------|

E|-12-14-15-14-------------------------------|------/--12~b14--------------|
B|-------------15--r13-15-17-13h14-----------|-----------------10----12b13-|
G|---------------------------------14-12-14--|--------------------11-------|
D|-------------------------------------------|-----------------------------|
A|-------------------------------------------|-----------------------------|
E|-------------------------------------------|-----------------------------|

E|-------------------------------------|-------------------------17-------|
B|-10~----10-8-------------------------|----------17----------------------|
G|-------------11-9-8------------------|----17-18----19b21-19b21----19b21-|
D|--------------------11-10-10---------|-19-------------------------------|
A|-------------------------------------|----------------------------------|
E|-----------------------------11b12---|----------------------------------|

E|-15---------------------------------------------|---------------------|
B|----------14------------------------------------|----------17-----17~-|
G|----17b19---------------------------------------|----17-18----19------|
D|-------------17b19-17-------12-14---------------|-19------------------|
A|----------------------15b17-------15b-12~-------|---------------------|
E|------------------------------------------------|---------------------|

E|-17-------------------------17-20b22---17-18-21-22b24-22b26-|---------|
B|----20-19-17-------------17---------------------------------|---------|
G|-------------20-19-17-18------------------------------------|---------|
D|------------------------------------------------------------|---------|
A|------------------------------------------------------------|---------|
E|------------------------------------------------------------|---0-6h7-|

E|---------------|----------|---------------------|---------------------|
B|---------------|----------|---------------------|---------------------|
G|---------------|----------|---------------------|---------------------|
D|---5-6---------|----------|-------------------2-|---------------------|
A|-------7---5-7-|----------|-------2-5-2-4-2-----|-------------0-------|
E|-7-------7-----|----------|-0-3h4-----------3---|---------------4b5~--|

E-|-----------------------|-------------------------|------------------|
B-|-----------------------|-------------------------|------------------|
G-|-----------------------|-------------------------|------------------|
D-|---------5-6-----------|-------------------------|--------5-6-------|
A-|-------5-----7---5-7---|-------5-4-2-------------|------5-----7---5-|
E-|-0-6h7---------7-------|-0-3h4-------3-2-2-0---0-|--6h7---------7---|

E|---------------------------------|------12b13-10-9-10p9--------12b13-|
B|---------------------------------|----------------------10-----------|
G|-----7b9-7-4---4-----------------|-6-7---------------------9~--------|
D|-------------7---5-6-------------|-5-7-------------------------------|
A|-7-------------------7-5---------|-7-9-------------------------------|
E|-------------------------7-6-5-3~|-----------------------------------|

E|-10b12-10-8-------|---------------------------|----------------------|
B|------------10b11-|-----------------------8~8~|----------------------|
G|------------------|---------------------------|----------------------|
D|------------------|-----------5-6-------------|----------------------|
A|------------------|---------5~----7---5-7-----|-------5-4-2---2------|
E|------------------|--0~6h-7~--------7---------|-0-3h4-------3---2-0--|

E--|--------14b15-12-------14b15-12~----15-15-12--------------------------|
B--|-----------------15--------------------------15-14-12-----------------|
G--|--------------------14--------------------------------15-14-12~-------|
D--|------------------------------------------------------------------14--|
A--|----------------------------------------------------------------------|
E--|---3~-----------------------------------------------------------------|

E|---|------------------------|-----------|-------------------|---------|
B|---|------------------------|-----------|-------------------|---------|
G|---|------------------------|-----------|---------2---------|---------|
D|---|----------5-6-----------|-----------|-------2-----5-5---|-------2-|
A|---|--------5~----7---5-7---|-2-3-4-5-6-|-0-3-4-----0-3-2---|-0-3-4---|
E|---|-0~6h-7~--------7-------|-0-1-2-3-4-|-----------------3-|---------|

E|----------|-------------------|----------------------|----------8---8---|
B|----------|-------------------|----------------------|-----8-10-7b9-7b9-|
G|-2--------|---------2~--------|---------5-2---5-4-0--|-8h9--------------|
D|------4-5-|-------2-----5-5---|-------2-----2--------|------------------|
A|---0--4-5-|-0-3-4-----0-3-2---|-0-3-4----------------|------------------|
E|------2-3-|-----------------3-|----------------------|------------------|

E----------|-------------------------------17--------------------------|
B-10-------|----------------------15-16-17----------15-----------------|
G----9~----|-------------14-16-17-------------17b18----------14--------|
D----------|----13-14-16-------------------------------17b18-----------|
A----------|-15-------------------------------------------------17b18--|
E----------|-----------------------------------------------------------|

E----------------|--------------17----17------------12----------------|
B----------------|--------14-17-16b18-16b18--13-----13b14-------------|
G----------------|--15h17-----------------------14~-------------------|
D-14-------------|----------------------------------------------------|
A----------------|----------------------------------------------------|
E----15b16~------|----------------------------------------------------|

E-----------8h9-0-1110------------------------------------|---|
B--------10-------1312----------9-8-7---------------------|---|
G-8-9-11----------------12-11h12-9-8-7---7b9-7-------------|--|
D----------------------------------------------9-7-9-------|--|
A----------------------------------------------------10-7-|---|
E----------------------------------------------------------|--|





Comments


Popular Dixie Dregs tabs & chords
Aftershock Tabs
Bash Tabs
Cruise Control Tabs
Great Spectacular Tabs
Holiday Tabs
Little Kids Tabs
Odyssey Tabs
Pride O The Farm Tabs
Punk Sandwich Tabs
Road Expense Tabs


Song lyrics



↑ Back to top | Tablatures and chords are parodies/interpretations of the original songs. You may use it for private study, scholarship, research or language learning purposes only
© 2014 AZChords.com Contact us | Privacy policy | DMCA | Add/correct tabs | Request tabs | Top 50 tabs