>
 >
Bash

Bash Guitar Tabs

Dixie Dregs - Bash chords, tabs, tablatures, lyrics

Guitar lessons | Add/correct | Request | Top 50 tabs Artists:  A B C D E F G H I J K L M N O P Q R S T U V W X Y Z 0-9

Bash Guitar Tabs – Dixie Dregs

CD, Sheet music, Poster

Do you like Bash? Share with your friends now
Tabs
E-5-5--------|-5--5--------|-5--5-------------|-5--5----------------|--------|
B-5-5h7------|-5--5h7------|-5--5h7-----------|-5--5h7--------------|----/12-|
G------------|-------------|------------------|---------------------|--------|
D------------|-------------|------------------|---------------------|--------|
A------------|-------------|------------------|---------------------|--------|
E------------|-------------|------------------|---------------------|--------|

E|------------------------------------3-----|-----------------------------------|
B|--------3------------3----------------3---|-----------------------------------|
G|--------2---------2~-2------------------0-|-----------------------------------|
D|------------0-2-4------4-4-4-2------------|-----------------2-4-2--0-----0----|
A|-12--0---0--------------------5----------|-----0-0-0--/2b1----------2b3---2b3-|
E|---------------------------------3~-------|-3b4-------------------------------|

E----------|-----------------5---------------3---|---------------------------|
B-------3--|---3-3-----------------------------3-|---------------------------|
G-------2--|---------------2---------------0-----|---------------------------|
D-------0--|-0---------2-4-----4-4-4-2-----------|-------------2-4-2--0------|
A-2b3-0----|-------4b5-----------------5---------|---0-0-0-2b4---------4-0-2-|
E----------|-----------------------------3-------|3b4------------------------|

E-----|--5--5-------|------------------10-----------------|----------5-6b7-5-|
B---3-|--5--5h7-----|---------7-8-8b10-----8b10---8--r7-0-|---------5--------|
G---2-|-------------|-7-7-7-7-----------------------------|5-6-6-6-6---------|
D---0-|-------------|-------------------------------------|------------------|
A-4---|-------------|-------------------------------------|------------------|
E-----|-------------|-------------------------------------|------------------|

E|--5--------------------|-------------------10-------10---------|-----------|
B|-----4b5--4------------|----------7-8-8b10-----8b10-----8--r7-0|-----------|
G|-----------0-----------|--7-7-7-7------------------------------|-5-6-6-6-6-|
D|-------------5-4~------|---------------------------------------|-----------|
A|-----------------------|---------------------------------------|-----------|
E|-----------------------|---------------------------------------|-----------|

                                        solo1

E|---5-6b7-5---------------------|----------7--------------------------------|
B|-5-------------r----5-7~-------|----10b12---10-----------------------------|
G|------------7---6-7------------|---------------9-7-7-7-7-7-7-7-7-7-7-7-9---|
D|-------------------------------|-------------------------------------------|
A|-------------------------------|-------------------------------------------|
E|-------------------------------|-------------------------------------------|

E|-----------|---------0-2-0---3-2-0---0-2-0-----------------------------------|
B|---------8-|-----3-4-------3-------4-------4-3---0-1-2-----------------------|
G|-7---7-9---|--0--------------------------------3-------2---0-2-0-------------|
D|---9-------|---------------------------------------------2-------3-2-0---2-0-|
A|-----------|-----------------------------------------------------------5-----|
E|-----------|-----------------------------------------------------------------|


E|---------|--------------------------------1---2--3-2-0--4-2-0-0-5---5-7-5--|
B|---------|-------------------3-----5-3-0-3--0--3-------3----------7--------|
G|---------|-4-2-4-2-----4-2-4---4-2-----------------------------------------|
D|---0-2/4-|---------4-2-----------------------------------------------------|
A|-2-------|-----------------------------------------------------------------|
E|---------|-----------------------------------------------------------------|

E|---8-7-5---9-7------10-7-10-7------------------|-------------------------------|
B|-7-------7-----10-7-----------10---------------|-------------------------------|
G|---------------------------------10-9-7---7~---|---4b6-4--4p2---2---2-----2-4--|
D|----------------------------------------9------|-0------------0---5---3h4------|
A|-----------------------------------------------|-------------------------------|
E|-----------------------------------------------|-------------------------------|

E|----------------------|-------------------------------------------|--------|
B|----------------------|-------------------------------------------|--------|
G|-2-4-2----------------|-------------------------------------------|--------|
D|-------3-2-0-2--------|--------------2-4-2--2----3-2-0---0-2------|--------|
A|---------------5------|-0--0-0-0-3-4----------0-------2-----3b5-0-|--------|
E|-----------------3~-3-|-------------------------------------------|-2-3-5--|

E|-------------------------------------2-0-2-3-2-3~--------2-----5-2---------|
B|-----------------------3-2-0---5-2-3---------------2-3-5---5-2-----5-2-----|
G|-----------2-----4-2---------4-----------------------------------------/5--|
D|-----2-3-4---4-2-----4---------------------------------------------------4-|
A|-4-5-----------------------------------------------------------------------|
E|---------------------------------------------------------------------------|

E|---------------------------------------|-----------------------------------|
B|---5-----------------------------------|-----------------------------------|
G|---5-4-2---2---2-----4-2---------------|-------2-4-2---2------2-4-4-2------|
D|-4-------6---5---3-4-----3-2-0-------0-|-0-2-4-------4--4-2-4-------4-0-5~-|
A|---------------------------------2b4---|-----------------------------------|
E|---------------------------------------|-----------------------------------|

E|----------------------------------------------------------1---2-0---3-2-0--|
B|------------------------------------------------3-5-3-0-3---3-----3--------|
G|----2-----2---2-2-2----2-2---------------0-2-4-----------------------------|
D|--5-----------------3b5----4-2------2-3-4----------------------------------|
A|------0-0---0------------------2-3-4---------------------------------------|
E|---------------------------------------------------------------------------|

E---4-2-0---5---5-7-5---8-7-5-7-9-5-10~----------9-10-11-12-11-10-9--------9-|
B-3-------3---7-------5-------------------9-10-12------------------12-11-12--|
G----------------------------------------------------------------------------|
D----------------------------------------------------------------------------|
A----------------------------------------------------------------------------|
E----------------------------------------------------------------------------|

E------------------------------|---------------------------------------------|
B-13-12-11-10-9----------------|---------------------------10-9-8-10-6h7-----|
G---------------12-10-11b12----|------7---7-7-9-10-9-7-------------------7---|
D---------------------------12|--------9--------------9-7----------------/9--|
A------------------------------|---------------------------------------------|
E------------------------------|--/10----------------------------------------|

E|---------------------------------------------------------------------------|
B|------------------------------------------------------------------------10-|
G|-7----------------------------------------------------------------9-10-12--|
D|---9-8-7------9-----------------------9------------------7-9-10-11---------|
A|---------9h10---10-9-9/10-7-10-9-7------7---------7-9-10-------------------|
E|-----------------------------------10-----10-9-10--------------------------|

E|------10-------12-10-------13-10-------14-10-------13----------12-------13-|
B|---12----12-10-------12-10-------12-10-------12-12----15-12-------15-12----|
G|12----------------------------------------------------------14---------14--|
D|---------------------------------------------------------------------------|
A|---------------------------------------------------------------------------|
E|---------------------------------------------------------------------------|

E|----------14-------14-15~|-------------15-17-17-15-17-17--17-15------------|
B|-15-12-------12-12-------|----14-15-17-------------17-----------18-19-15---|
G|-------14----------------|-16----------------------------------------------|
D|-------------------------|-------------------------------------------------|
A|-------------------------|-------------------------------------------------|
E|-------------------------|-------------------------------------------------|

E--|-------------------------------------------------------------------------|
B--|-------------------------------------------------------------------------|
G--|------7-----------7-----------7-----------7-----------7-----------7------|
D--|-------9-8-7-8-9---9-8-7-8-9---9-8-7-8-9---9-8-7-8-9---9-8-7-8-9---9-8---|
A--|-------------------------------------------------------------------------|
E--|--/10--------------------------------------------------------------------|


E------------------|---------------------------------------------------------|
B------------------|---------------------------------------------------------|
G-------7--------7-|-9----------------9----------------9--------------9------|
D-7-8-9---9-8-7-8-9|---------------------------------------------------------|
-------------------|---12-11-10-11-12---12-11-10-11-12---12-11-10-11-12---12-|
E------------------|---------------------------------------------------------|

E----------------------------------------------------------|-----------------|
B----------------------------------------------------------|-----------------|
G--------------9----------------10----------------10-11-11-|-14--------------|
D----------------------------------------------------------|-----------------|
A-11-10-11-12----12-11-10-11-12----12-11-10-11-12----------|--17-16-15-16-17-|
E----------------------------------------------------------|-----------------|

E--------------------------------------|-------------------------------------|
B--------------------------------------|-15---------------15--------------15-|
G--14----------------14----------------|----17-16-15-16-17--17-16-15-16-17---|
D--------------------------------------|-------------------------------------|
A-----17-16-15-16-17----17-16-15-16-17-|-------------------------------------|
E--------------------------------------|-------------------------------------|

E-------------------|--------------------------------------------------------|
B----------------15-|-17----------------17----------------17--------------17-|
G-17-16-15-16-17----|--------------------------------------------------------|
D-------------------|----19-18-17-18-19----19-18-17-18-19----19-18-17-18-19--|
A-------------------|--------------------------------------------------------|
E-------------------|--------------------------------------------------------|

E----------------|------------------|-5-5--------|-5--5--------|-5--5--------|
B----------------|-18--18-17--------|-5-5h7------|-5--5h7------|-5--5h7------|
G----------------|-----------19----|------------|-------------|--------------|
D-19-18-17-18-19-|------------------|------------|-------------|-------------|
A----------------|------------------|------------|-------------|-------------|
E----------------|------------------|------------|-------------|-------------|

E----|-5--5-------|---0-2-0-----0-2-5-0--0-2-0-----------0-2-0--0-5-0--0-2-0-|
B----|-5--5h7-----|--2--------2---------2-------2-0--0-2-------2------2------|
G----|------------|--------------------------------2-------------------------|
D----|------------|----------------------------------------------------------|
A----|------------|----------------------------------------------------------|
E----|------------|----------------------------------------------------------|

E|-----------0-2-0---0-4-0---0-2-0-----------0-2-0---0-4-0---0-2-0---------0-|
B|-3-0---0-3-------3-------3-------3-0---0-3-------3-------2-------2-0--0-2--|
G|-----1-------------------------------1-------------------------------2-----|
D|---------------------------------------------------------------------------|
A|---------------------------------------------------------------------------|
E|---------------------------------------------------------------------------|

E|-2-0---0-5-0---0-2-0---------5--3-5-2-----------2-5-4-2--------------------|
B|-----2-------2-------2-0--------------3---2-3-5---------5-3-2-3-5-3-0------|
G|-------------------------2~-------------2-----------------------------1-2--|
D|---------------------------------------------------------------------------|
A|---------------------------------------------------------------------------|
E|---------------------------------------------------------------------------|

E|----5-------9-------5---------------5-------9------5-4-----0-4-5-4---4-5-7-|
B|--5---5-5-5---5-5-5---5-5-5---5-5-5--5-5-5--5-5-5-------7-5---------7------|
G|----------------------------6-------------------------------7--------------|
D|---------------------------------------------------------------------------|
A|---------------------------------------------------------------------------|
E|---------------------------------------------------------------------------|


E|-4---0-4-5-4-----------4-5-4---4-7-4---4-5-4-------------5-------9-------5-|
B|---7---------7-5---5-7-------7-------7-------7-5--5-5-5--5-5-5--5-5-5--5---|
G|-----------------7-------------------------------6-------------------------|
D|---------------------------------------------------------------------------|
A|---------------------------------------------------------------------------|
E|---------------------------------------------------------------------------|

                                                      violin solo

E-------9-8-7-9-5------------10-11-8-9-7------7----------|--------------|-9-|
B-5-5-------------7---7-7-10-------------11-7---9-5------|--------------|---|
G-----6-------------7-------------------------------7-6/-|--------------|-9-|
D--------------------------------------------------------|--------------|---|
A--------------------------------------------------------|--------------|---|
E--------------------------------------------------------|--------------|---|

E------------------|----------------12--|--------12----------|---------------|
B------10h12-------|-------------9--10--|----10--10-12-10----|-7-10-10-------|
G-------9----9-----|-------9-----9---9--|-9---9-----12-11----|-8--9-11--8h9--|
D------------9-----|--9----9h11---------|--------------------|--------10-10--|
A------------------|-11-----------------|--------------------|---------------|
E------------------|--------------------|--------------------|---------------|

E--------|-17--------17-16~---|-------16-------17------|---------17-15-14---|
B--------|-17-----17-17-17~---|-17----17-17b18-17------|-17------14----15---|
G--------|--------14----------|-16---------------------|-14-----------------|
D-11-7---|--------------------|------------------------|--------------------|
A--------|--------------------|------------------------|--------------------|
E--------|--------------------|------------------------|--------------------|

E-17-----------------------------|-14/17----17----17-17-14-17-14-15b17-1514-|
B-16-17p14-17b18-17----17--------|-------14----14---------------------------|
G----14----------16b17-16--r14~--|------------------------------------------|
D--------------------------------|------------------------------------------|
A--------------------------------|------------------------------------------|
E--------------------------------|------------------------------------------|

E|---------------14-15-16-17-16-15-14----16-14-------14----14-17-14----------|
B|-17~-14-15-17-----------------------17-------17-16----17-------------------|
G|----------------------------------------------------------------17-16------|
D|---------------------------------------------------------------------14/16-|
A|---------------------------------------------------------------------------|
E|---------------------------------------------------------------------------|

E|-------------|---5------5-------5------------------------------------------|
B|-------------|-----8b10---8-7-8---8-7-6-5------------------5-6-5------10-9-|
G|-14-16----14|-6--------------------------8-7-6-5----5-6-7-------7~-/9------|
D|-------16----|------------------------------------/7-----------------------|
A|-------------|-------------------------------------------------------------|
E|-------------|-------------------------------------------------------------|

                                             violin solo

E|---------------------------------------------|---------------------|-----|
B|-10p9--------------12------------------------|---------------------|-----|
G|------11-9~-9~-9-9-12-9-11-9----9------------|---------------------|-4b5-|
D|-----------------------------12---10-11------|---------------------|-----|
A|----------------------------------------12~-|---------------------|0-----|
E|---------------------------------------------|---------------------|-----|

  pull strings up with fingers

E|-------------------------------|-------------------------------------------|
B|-------------------------------|---------------------------6---------------|
G|-4b-4-2---2--2-2---------------|-------------------------4---6-4----{6}6-4-|
D|--------4--------5-4-2---------|-------------2h4p2---4/6---------7-4-------|
A|-----------------------4-4-2~--|-------2-4-2-------4-----------------------|
E|-------------------------------|-2-3-4-------------------------------------|

         more violin

E|---------|-----------------------|------------------------------|----------|
B|---------|-----------------------|--5---------------------------|----------|
G|---------|-----------------------|----------7-------4-6---------|----------|
D|-7-------|-----------------------|----0-0-0---0-0-0-----7---4-4~|-5-4------|
A|---4b5---|-----------------------|------------------------7-----|-----7-5--|
E|-------5/|-----------------------|------------------------------|----------|

            violin

E|---------|----------|---------------------------------------2-----4---4b6~-|
B|---------|----------|-------------------3-2---4-3-2-3-5-3-5---5-3---5------|
G|---------|----------|-------------2-4-6-----2------------------------------|
D|---4-----|----------|---------4-2------------------------------------------|
A|-7---7~/-|----------|-0-2-4-5----------------------------------------------|
E|---------|----------|------------------------------------------------------|

     violin

E|--/|-------------|-17-16-14-------14------------------------------|--------|
B|---|-------------|----------15-17----1716-15-14-13---------------|---------|
G|---|-------------|----------------------------------16b17---------|--------|
D|---|-------------|------------------------------------------------|--------|
A|---|-------------|------------------------------------------------|--------|
E|---|-------------|------------------------------------------------|--------|

E|----------------12-14-15-17-17b19-|---------r--|--------------------------|
B|---/11-13-14-15-------------------|------------|-----------17-17-19-17-19-|
G|----------------------------------|------------|--18-17-18----------------|
D|----------------------------------|------------|--------------------------|
A|----------------------------------|------------|--------------------------|
E|----------------------------------|------------|--------------------------|

E|-17-------20-19b21---|-----------|----20b21-19b20-17-19-17-----------------|
B|----19-19------------|-----------|-17----------------------20-19-17-----17-|
G|---------------------|-----------|---------------------------------18b20---|
D|---------------------|-----------|-----------------------------------------|
A|---------------------|-----------|-----------------------------------------|
E|---------------------|-----------|-----------------------------------------|

------------------------|-9/12-9-9-0----9/12-9-9-0----9/12-9-9-0----10-0-9-0-|
16----------------------|------------10------------10------------10----------|
---17-16-15-------------|----------------------------------------------------|
------------------------|----------------------------------------------------|
------------15b16-------|----------------------------------------------------|
------------------17---|-----------------------------------------------------|

-7-x-0-|-7/10-7-7-0---7/10-7-7-0---7/10-7-7-0---9-0-7-0-5-0-0-0-|-9/12-9-9-0-|
-------|------------9------------9------------9-----------------|------------|
-------|--------------------------------------------------------|------------|
-------|--------------------------------------------------------|------------|
-------|--------------------------------------------------------|------------|
-------|--------------------------------------------------------|------------|

----9/12-9-9-0----9/12-9-9-0---------10-10-|-0------10------11-12-11-10-9----|
-10------------10------------10-7-10----10-|---7-10----7-10---------------12-|
-------------------------------------------|---------------------------------|
-------------------------------------------|---------------------------------|
-------------------------------------------|---------------------------------|
-------------------------------------------|---------------------------------|

------------------------------9-|----0-2-0---0-5-0---0-2-0-----------0-2-0---|
-11-9-----------------9-10-12---|-2--------2-------2-------2-0---0-2-------2-|
------11-9-------9-11-----------|------------------------------2-------------|
-----------11-12----------------|--------------------------------------------|
--------------------------------|--------------------------------------------|
--------------------------------|--------------------------------------------|

E|-0-5-0---0-2-0----------0-2-0---0-4-0---0-2-0----------0-2-0---0-4-0---0-2-|
B|-------2-------3-0---0-3------3-------3-------3-0---0-3------3-------3-----|
G|-------------------1------------------------------1------------------------|
D|---------------------------------------------------------------------------|
A|---------------------------------------------------------------------------|
E|---------------------------------------------------------------------------|

E|0-----------0-2-0--0-5-0--0-2-0--------5-5-3-5-2---------2-5-4-2----------|
B|--2-0---0-2------2------2-------2-0---------------3---3-5---------5-3-2-3-|
G|------2------------------------------2~-------------2---------------------|
D|--------------------------------------------------------------------------|
A|--------------------------------------------------------------------------|
E|--------------------------------------------------------------------------|

E|----------|--5-------9-------5---------------5-------9-------5-4-------0-4-|
B|5-3-0-----|5---5-5-5---5-5-5---5-5-5---5-5-5---5-5-5---5-5-5-----7-5-------|
G|------1-2/|---------------------------6-------------------------------7----|
D|----------|----------------------------------------------------------------|
A|----------|----------------------------------------------------------------|
E|----------|----------------------------------------------------------------|

E|5-4---4-7-4---4-5-4-----------4-5-4---4-7-4---4-5-4-------------5--------9-|
B|----7-------7-------7-5---5-7-------7-------7-------7-5---5-5-5---5-5-5-5--|
G|------------------------7-------------------------------6------------------|
D|---------------------------------------------------------------------------|
A|---------------------------------------------------------------------------|
E|---------------------------------------------------------------------------|

-----5---------9-8-7-9-5------------10-11-8-9-7------7-----------------------|
-5-5---5-5-5-------------7---7-7-10-------------11-7---9-5----------7-8-9-10-|
-------------6-------------7------------------------------7--6-7-8-9---------|
-----------------------------------------------------------9-----------------|
-----------------------------------------------------------------------------|
-----------------------------------------------------------------------------|

E-10-11-8-9-7--------7---10--9----17-|----------------------|
B-------------11-7----------10----14-|----------------------|
G------------------7---9----------14-|----------------------|
D------------------------------------|----------------------|
A------------------------------------|----------------------|
E------------------------------------|----------------------|





Comments


Popular Dixie Dregs tabs & chords
Aftershock Tabs
Bloodsucking Leeches Tabs
Good Intentions Tabs
Great Spectacular Tabs
Leprechuan Promenade Tabs
Little Kids Tabs
Odyssey Tabs
Pride O The Farm Tabs
Refried Funky Chicken Tabs
Twiggs Approved Tabs


Song lyrics



↑ Back to top | Tablatures and chords are parodies/interpretations of the original songs. You may use it for private study, scholarship, research or language learning purposes only
© 2014 AZChords.com Contact us | Privacy policy | DMCA | Add/correct tabs | Request tabs | Top 50 tabs