>
 >
Aftershock

Aftershock Guitar Tabs

Dixie Dregs - Aftershock chords, tabs, tablatures, lyrics

Guitar lessons | Add/correct | Request | Top 50 tabs Artists:  A B C D E F G H I J K L M N O P Q R S T U V W X Y Z 0-9

Aftershock Guitar Tabs – Dixie Dregs

CD, Sheet music, Poster

Do you like Aftershock? Share with your friends now
Tabs


E-||------------------------------|----------------------------||-||---------------|
B-||*-------------------------3-5-|-------------------------1-*||-||*-16b18--15b17-|
G-||--------------------------3-5-|---------------------0---0--||-||---------------|
D-||--------------0---3---5-------|-------------0---3-------3--||-||---------------|
A-||*-------1---3---1---3---5-----|-------1---3---1---0-----3-*||-||*--------------|
E-||--3-0-1---3-------------------|-3-0-1---3-------------3-1--||-||---------------|

E|---------------------------------|------------------------|-------------------|
B|-15~-13--------------------------|------------------------|-------------------|
G|--------15b16-12-------12~-15b16-|-15-12----12~-----------|-------------------|
D|-----------------15-12-----------|-------15------15p14p12-|-14-12-------------|
A|---------------------------------|------------------------|-------13b15--15~--|
E|---------------------------------|------------------------|-------------------|

E-----||--------------------------------------------|--------------------------|
B----*||--------------------------------------------|--15b17--r13----13~-15b17-|
G-----||-5b7-5-3---3--------------------------------|-------------14-----------|
D-----||---------5----5-3---3---------------------3-|--------------------------|
A----*||------------------5----3-1---1--3-----1---1-|--------------------------|
E-----||---------------------------3------0-1---3---|--------------------------|

E-|---------------------|--------------------------------------------|----------|
B-|-------13~----16b18--|-15b17-13----13~----------------------------|-15b16----|r
G-|-15b17-----15--------|----------15-----15p14p12--14-12------------|----------|
D-|---------------------|---------------------------------13b15--15~-|----------|
A-|---------------------|--------------------------------------------|----------|
E-|---------------------|--------------------------------------------|----------|

E------------------|--------------------|-----------------17b18-17-15----------|
B-13----13~-15b16--|-------13~---16b18--|-16b17-13----13--------------19-18-16-|
G----14------------|-15b17----15--------|----------15--------------------------|
D------------------|--------------------|--------------------------------------|
A------------------|--------------------|--------------------------------------|
E------------------|--------------------|--------------------------------------|

E--------15-------------|--------------------------------------------||---------|
B--18-19----15b17--r-13~|--------------------------------------------||*--------|
G-----------------------|-5b7-5-3----3-------------------------------||---------|
D-----------------------|---------5----5-3---3---------------------3-||---5-----|
A-----------------------|------------------5----3-1---1--3-----1---1-||*--3-----|
E-----------------------|---------------------------3------0-1---3---||-----0-1-|

E|-----------|-------------------|------------------|---------------------||------|
B|-----------|-------3-----------|------------------|-1-1---3------------*||-9b11-|
G|-5-----3---|-2-----0-----------|-------5-----3----|-------0-------------||------|
D|-3-----0-1-|-3-----0-----------|-5-----3-----0--1-|-2-3---0-------------||------|
A|---0-1-----|-----3-----------5-|-3-------0-1------|-------0------5b6-5-*||------|
E|-----------|---1-----3-3-5/7---|---0-1------------|-----3----3-3--------||------|

E----6------------|--------------------|---------6------------|----------------|
B-9----8b10-6-----|-6b8--r-------------|-9b11-9----8b10-6-----|-8b9--r-6~------|
G-------------5-7-|-------7---5--------|------------------5-7-|----------------|
D-----------------|---------8---7------|----------------------|----------------|
A-----------------|---------------8-6~-|----------------------|----------------|
E-----------------|--------------------|----------------------|----------------|

E---------6------------|--------------------|--------10-10------8-|---------10b12-|
B-9b11-9----8b10-6-----|-6b8--r-------------|-6/8-11-------11-----|-10------------|
G------------------5-7-|-------7---5--------|-----------------8---|----10---------|
D----------------------|---------8---7------|---------------------|-------8-------|
A----------------------|---------------8-6--|---------------------|---------------|
E----------------------|--------------------|---------------------|---------------|

E-8------13b15--|-||------------------------------|----------------------------|-|
B------8--------|-||*-------------------------3-5-|-------------------------1-*|-|
G---------------|-||--------------------------3-5-|---------------------0---0--|-|
D---10----------|-||--------------0---3---5-------|-------------0---3-------3--|-|
A---------------|-||*-------1---3---1---3---5-----|-------1---3---1---0-----3-*|-|
E---------------|-||--3-0-1---3-------------------|-3-0-1---3-------------3-1--|-|

E-----------------------|---------------------------------|---------------------|
B----8---8---8----------|---------------------------------|---------------------|
G--5h7-6p5-----0--------|---------------------------------|-------------------5-|
D----------8------0-3b5-|-5-------------0-----------------|-------------5-7-8---|
A-----------------------|---3b-1~b5-3b4---1-3-3b5--r-b2-r-|-------5-7-8---------|
E-----------------------|---------------------------------|-5-6-8---------------|

E-----|--------------------|----------------------------------------------------|
B-----|--------------------|----------------------------------------------------|
G-6-7-|-7b9----{5}----7b8--|-{5}~--7b8------------------------------------------|
D-----|--------------------|---------------------------------12b14--------------|
A-----|--------------------|--------------5b7--r-----------------------------10-|
E-----|--------------------|--------------------8~---------8/-------10-11-12----|

E-----------------------------------|--12-13-14-15-----------------------15-16-|
B-----------------------------15b17-|--------------15b17-13-13~-15-16-17-------|
G-----------------------------------|------------------------------------------|
D-------10~----------10-11-12-------|------------------------------------------|
A-11-12-----10-11-12----------------|------------------------------------------|
E-----------------------------------|------------------------------------------|

                                                                  Violin Solo

E-17-|-18-17b18~-------15--------|-20----------15---------|---------------------|
B----|--------------18----18~b20-|----------18----15b19--r|---------------------|
G----|-----------17--------------|----1715---------------|------------14--------|
D----|---------------------------|------------------------|----------------5-8--|
A----|---------------------------|------------------------|-------1-------------|
E----|---------------------------|------------------------|-3-0-1---3~----------|

E|---------------5-6-8-6-|-------------------6-------8b10---8--r-6~---------|----|
B|-----------6-8---------|---------------------8-6------------------8---6---|----|
G|-5-----5-7-------------|-------------------------7------------------7---7-|-7--|
D|---5-8-----------------|--------------------------------------------------|----|
A|-----------------------|-------1-3~/5-3-----------------------------------|----|
E|-----------------------|-3-0-1----------6~--------------------------------|----|

E----------------------------------|----------------------15-18/20b20--r18~-|--|
B----------------------------------|----------15h18p15-15-------------------|--|
G-5-3h5---3~--0-----------12h15p12-|-------15-------------------------------|--|
D-------5--------------12----------|----17----------------------------------|--|
A-------------------13-------------|-17-------------------------------------|--|
E----------------15----------------|----------------------------------------|--|

                                                      Keyboard solo

E----------------------|----------------------------------|------||------------|
B---20b22--r-{20}~-----|-18p15----------------------------|------||*-----------|
G----------------------|-------18p17-15-------------------|------||------------|
D----------------------|----------------17-15-------------|------||------------|
A----------------------|----------------------17-15-13-15-|-13~--||*-------1---|
E----------------------|----------------------------------|------||--3-0-1---3-|

E|-------------------|----------------------------||---------------------------|
B|---------------3-5-|-------------------------1-*||--15b17--r13----13~-15b17--|
G|---------------3-5-|---------------------0---0--||-------------14------------|
D|---0---3---5-------|-------------0---3-------3--||---------------------------|
A|-3---1---3---5-----|-------1---3---1---0-----3-*||---------------------------|
E|-------------------|-3-0-1---3-------------3-1--||---------------------------|

E---------------------|--------------------------------------------|------------|
B-------13~----16b18--|-15b17-13----13~----------------------------|-15b16--r13-|
G-15b17-----15--------|----------15-----15p14p12--14-12------------|------------|
D---------------------|---------------------------------13b15--15~-|------------|
A---------------------|--------------------------------------------|------------|
E---------------------|--------------------------------------------|------------|

E---------------|--------------------|-----------------17b18-17-15--------------|
B----13~-15b16--|-------13~---16b18--|-16b17-13----13--------------19-18-16--18-|
G-14------------|-15b17----15--------|----------15------------------------------|
D---------------|--------------------|------------------------------------------|
A---------------|--------------------|------------------------------------------|
E---------------|--------------------|------------------------------------------|

E----15-------------|--------------------------------------------||-------------|
B-19----15b17--r-13~|--------------------------------------------||*------------|
G-------------------|-5b7-5-3----3-------------------------------||---------5---|
D-------------------|---------5----5-3---3---------------------3-||---5-----3---|
A-------------------|------------------5----3-1---1--3-----1---1-||*--3-------0-|
E-------------------|---------------------------3------0-1---3---||-----0-1-----|

E|-------|-------------------|------------------|---------------------||--------|
B|-------|-------3-----------|------------------|-1-1---3------------*||-9b11-9-|
G|---3---|-2-----0-----------|-------5-----3----|-------0-------------||--------|
D|---0-1-|-3-----0-----------|-5-----3-----0--1-|-2-3---0-------------||--------|
A|-1-----|-----3-----------5-|-3-------0-1------|-------0------5b6-5-*||--------|
E|-------|---1-----3-3-5/7---|---0-1------------|-----3----3-3--------||--------|

E--6------------|--------------------|---------6------------|---------------|------|
B----8b10-6-----|-6b8--r-------------|-9b11-9----8b10-6-----|-8b9--r-6~-----|-9b11-|
G-----------5-7-|-------7---5--------|------------------5-7-|---------------|------|
D---------------|---------8---7------|----------------------|---------------|------|
A---------------|---------------8-6~-|----------------------|---------------|------|
E---------------|--------------------|----------------------|---------------|------|

E----6------------|--------------------|--------10-10------8-|---------10b12-8-|
B-9----8b10-6-----|-6b8--r-------------|-6/8-11-------11-----|-10--------------|
G-------------5-7-|-------7---5--------|-----------------8---|----10-----------|
D-----------------|---------8---7------|---------------------|-------8---------|
A-----------------|---------------8-6--|---------------------|-----------------|
E-----------------|--------------------|---------------------|-----------------|

E------13b15--|-----------------------------|---------------------------|-------|
B----8--------|-------------------------3-5-|-------------------------1-|-------|
G-------------|-------------------------3-5-|---------------------0---0-|-------|
D-10----------|-------------0---3---5-------|-------------0---3-------3-|-------|
A-------------|-------1---3---1---3---5-----|-------1---3---1---0-----3-|-------|
E-------------|-3-0-1---3-------------------|-3-0-1---3-------------3-1-|-3-0-1-|

E|-----------------------|---------------------------------|----------------|
B|-------------------3-5-|---------------------------------|-----------1-3--|
G|-------------------3-5-|---------------------0---2---3-3-|---3---5--------|
D|-------0---3---5-------|-------------0---3-----------1-0-|---4---5---3-5--|
A|-1---3---1---3---5-----|-------1---3---1---0-------3-----|-1---7---7------|
E|---3-------------------|-3-0-1---3-------------3---------|---------0-1-3--|





Comments


Popular Dixie Dregs tabs & chords
Bash Tabs
Bloodsucking Leeches Tabs
Cruise Control Tabs
Good Intentions Tabs
Ice Cakes Tabs
Leprechuan Promenade Tabs
Punk Sandwich Tabs
Refried Funky Chicken Tabs
Road Expense Tabs
Twiggs Approved Tabs


Song lyrics



↑ Back to top | Tablatures and chords are parodies/interpretations of the original songs. You may use it for private study, scholarship, research or language learning purposes only
© 2014 AZChords.com Contact us | Privacy policy | DMCA | Add/correct tabs | Request tabs | Top 50 tabs