» » »

Dixie Chicks, Goodbye Earl Bass tabs (ver.1)

Artists:  A B C D E F G H I J K L M N O P Q R S T U V W X Y Z # 

Goodbye Earl Bass tabs (ver.1)

Dixie Chicks Tabs
 Rating:
4/5 (4 votes)
Goodbye Earl lessons Tabs too difficult? Try these video lessons and learn fast
                -------------------------------------------------------------------------------
-------------------------------------------------------------------------------


Intro Part 1 x2
G|---------------------------------------------------------------------------|
D|-8h10-10-10-10-8h10-10-10-10-----------------------------------------------|
A|---------------------------------------------------------------------------|
E|---------------------------------------------------------------------------|

Intro Part 2 x1
G|---------------------------------------------------------------------------|
D|---------------------------------------------------------------------------|
A|-8h10-10-10-10-8h10-10-10-10-3-3-3-3-3-3-3-3-------------------------------|
E|---------------------------------------------------------------------------|

Pre-Verse x1
G|---------------------------------------------------------------------------|
D|--------0-1-2-3-3-2---2-3-5-5-5-5-5-5-5-3-3-3-3-3--------------------------|
A|-3--3-3-------------3------------------------------------------------------|
E|---------------------------------------------------------------------------|

Break

Pre-Verse x1
G|---------------------------------------------------------------------------|
D|-------------------2-2-3-3-3-3-3-3-2-2---------2-2-3-3-5-5-3-3-2-2---------|
A|-0-1-2-3-3-3-3-3-3---------------------3-3-3-3---------------------5-5-----|
E|---------------------------------------------------------------------------|

G|---------------------------------------------------------------------------|
D|-------------2-2-3-3-3-3-3-3-2-2---------5-5-5-5---------------------------|
A|-3-3-3-3-3-3---------------------3-3-3-3---------3-3-3-3-3-3-3-3-3-3-3-3-3-|
E|---------------------------------------------------------------------------|

Verse x2
G|---------------------------------------------------------------------------|
D|-------------------2-2-3-3-3-3-3-3-2-2---------2-2-3-3-5-5-3-3-2-2---------|
A|-0-1-2-3-3-3-3-3-3---------------------3-3-3-3---------------------5-5-----|
E|---------------------------------------------------------------------------|

G|---------------------------------------------------------------------------|
D|-------------2-2-3-3-3-3-3-3-2-2---------5-5-5-5---------------------------|
A|-3-3-3-3-3-3---------------------3-3-3-3--------(3-3-3-3-3-3-3-3-3-3-3-3-3)|
E|---------------------------------------------------------------------------|

Verse Ending (Replaces the notes in brackets) x1
G|---------------------------------------------------------------------------|
D|---------------------------------------------------------------------------|
A|--3-3-3-3-3-3-3-3-3-3-3-3-3-3-2-2------------------------------------------|
E|---------------------------------------------------------------------------|

Pre-Chorus x1
G|---------------------------------------------------------------------------|
D|---------------------------------------------------------------------------|
A|-0--0-0-0--0-0-----------------------------3-3-3---3-2-2-------------------|
E|---------------3--3-3-3--3-3-1--1-1-1--1-1---------------------------------|

G|---------------------------------------------------------------------------|
D|---------------------------------------------------------------------------|
A|-0--0-0-0--0-0-----------------------------3-3-3---------------------------|
E|---------------3--3-3-3--3-3-1--1-1-1--1-1---------------------------------|

Chorus x4
G|---------------------------------------------------------------------------|
D|---------0-1-2-3--3-2----2-3-5-5-5-5-5-5-5-5-3-3-3-3-2---------------------|
A|-3-3-3-3--------------3--------------------------------0-1-2---------------|
E|---------------------------------------------------------------------------|

Pre-Verse x1
G|---------------------------------------------------------------------------|
D|-8h10--10-8h10--10-10-10-8h10--10-8h10--10-10-10---------------------------|
A|---------------------------------------------------------------------------|
E|---------------------------------------------------------------------------|

Verse (No Guitar)
G|---------------------------------------------------------------------------|
D|---------------------------------------------------------------------------|
A|-3--3-3-3--3-3/8--8-8-8--8-8--3--3-3-3--3-3/10-10\-------------------------|
E|---------------------------------------------------3-3---------------------|

G|---------------------------------------------------------------------------|
D|---------------------------------------------------------------------------|
A|-3--3-3-3--3-3/8--8-8-8--8-8--3--3-3/10-10\-3-3-3-3------------------------|
E|---------------------------------------------------------------------------|

Verse x1
G|---------------------------------------------------------------------------|
D|-------------------2-2-3-3-3-3-3-3-2-2---------2-2-3-3-5-5-3-3-2-2---------|
A|-0-1-2-3-3-3-3-3-3---------------------3-3-3-3---------------------5-5-----|
E|---------------------------------------------------------------------------|

G|---------------------------------------------------------------------------|
D|-------------2-2-3-3-3-3-3-3-2-2---------5-5-5-5---------------------------|
A|-3-3-3-3-3-3---------------------3-3-3-3--------(3-3-3-3-3-3-3-3-3-3-3-3-3)|
E|---------------------------------------------------------------------------|

Verse Ending (Replaces the notes in brackets) x1
G|---------------------------------------------------------------------------|
D|---------------------------------------------------------------------------|
A|--3-3-3-3-3-3-3-3-3-3-3-3-3-3-2-2------------------------------------------|
E|---------------------------------------------------------------------------|

Pre-Chorus x1
G|---------------------------------------------------------------------------|
D|---------------------------------------------------------------------------|
A|-0--0-0-0--0-0-----------------------------3-3-3---3-2-2-------------------|
E|---------------3--3-3-3--3-3-1--1-1-1--1-1---------------------------------|

G|---------------------------------------------------------------------------|
D|---------------------------------------------------------------------------|
A|-0--0-0-0--0-0-----------------------------3-3-3---------------------------|
E|---------------3--3-3-3--3-3-1--1-1-1--1-1---------------------------------|

Chorus Variation x1
G|---------------------------------------------------------------------------|
D|---------0-1-2-3--3-2----2-3-5-5-5-5-5-5-5-5-3-3-3-3-2---------------------|
A|-3-3-3-3--------------3--------------------------------0-1-2-33333---------|
E|---------------------------------------------------------------------------|

G|---------------------------------------------------------------------------|
D|--3--3-2----2-3-5-5-5-5-5-5-5-5-3-3-3-3-2----------------------------------|
A|---------3--------------------------------0-1-2----------------------------|
E|---------------------------------------------------------------------------|

Chorus x6
G|---------------------------------------------------------------------------|
D|---------0-1-2-3--3-2----2-3-5-5-5-5-5-5-5-5-3-3-3-3-2---------------------|
A|-3-3-3-3--------------3--------------------------------0-1-2---------------|
E|---------------------------------------------------------------------------|

Ending
G|---------------------------------------------------------------------------|
D|-8h10--10-8h10--10-10-10-8h10--10-8h10--10-10-10---------------------------|
A|-------------------------------------------------8h10--10-8h10--10-10-10---|
E|-------------------------------------------------------------------------3~|

I know this is not exact, this is how I play it, I added in different fills and my 
is also different and personally I prefer it to the original, it's more fun!

Enjoy!
            
Submit corrections

comments powered by Disqus
↑ Back to top | Dixie Chicks Bass for Goodbye Earl. Lyrics for acoustic guitar and electric guitar. Tablatures and chords are parodies/interpretations of the original songs. You may use it for private study, scholarship, research or language learning purposes only