» » »

Dixie Chicks, Cowboy Take Me Away Tabs (ver.1)

Artists:  A B C D E F G H I J K L M N O P Q R S T U V W X Y Z # 

Cowboy Take Me Away Tabs (ver.1)

Dixie Chicks Tabs
Rating:
1/5 (1 vote)
Hard to play? Try these video lessons and learn fast.
                Capo 4th fret
Thanks to Heather Harper and her video in helping me make this.

Intro: (Disregard the Capo for the intro)

--11--9--6-----11--9--6-----11--9--6---------16-14-13-11-9-4--e
--------------------------------------7-----------------------B
----------------------------------------6---------------------G
--------------------------------------------------------------D
--------------------------------------------------------------A
--------------------------------------------------------------E


--4--6--6/7--6---------4--6--6/7--6-------4--6--6/7--6----------e
----------------6/7------------------6/7----------------6/7--4--B
--------------------------------------------------------------6-G
----------------------------------------------------------------D
----------------------------------------------------------------A
----------------------------------------------------------------E


B - xxx033
G - 320033
D - xx0232
A - x0222x

Verse: (In relation to Capo)

                 G    A    D
I said I wanna touch the earth
          G       A      D
I wanna break it in my hands
          G     A       D         A
I wanna grow something wild and unruly

          G           A     D
I wanna sleep on the hard ground
          G     A        D
In the comfort of your arms
        G    A      D
On a pillow of bluebonnets
        A
In a blanket made of stars
        B     D      A
Oh it sounds good to me I said


        D    G   A
Cowboy take me away
                  D          
Fly this girl as high as you can
  G            A
Into the wild blue
         D  G      A
Set me free oh I pray
            D              
Closer to heaven above and
  G        A
Closer to you 
               G  A  D    G  A  D    G  A  D  A
closer to you   



Verse 2: (same chords)
I wanna walk and not run
I wanna skip and not fall
I wanna look at the horizon
And not see a building standing tall

I wanna be the only one
For miles and miles
Except for maybe you
And your simple smile

Oh it sounds good to me
Yes it sounds so good to me

Cowboy take me away
Fly this girl as high as you can
Into the wild blue
Set me free oh I pray
Closer to heaven above and
Closer to you closer to you

I said I wanna touch the earth
I wanna break it in my hands
I wanna grow something wild and unruly
Oh it sounds so good to me

Cowboy take me away
Fly this girl as high as you can
Into the wild blue
Set me free oh I pray
Closer to heaven above and
Closer to you closer to you
Closer to you
Cowboy take me away.
Closer to you
            

comments powered by Disqus
↑ Back to top | Dixie Chicks Tabs for Cowboy Take Me Away. Lyrics for acoustic guitar and electric guitar. Tablatures and chords are parodies/interpretations of the original songs. You may use it for private study, scholarship, research or language learning purposes only