» » »

Division Minuscula, Vamos A Jugar! Tabs (ver.1)

Artists:  A B C D E F G H I J K L M N O P Q R S T U V W X Y Z # 

Vamos A Jugar! Tabs (ver.1)

Division Minuscula Tabs
 Rating:
4/5 (4 votes)
Vamos A Jugar! lessons Tabs too difficult? Try these video lessons and learn fast
                Intro 

---------------------------------------------------------- 
-----3--------3-------3----3-------3---------3----3------- 
---2--------2---2----2----2------2---2------2----2-------- 
----------0---------2----4-----0-------------------------- 
-0-----------------------------------------0-------------- 
------------------------------------------------2---------  x 2

--------------------------------------------------- 
--------3-------3----3-------3---------3----3------ 
------2---2----2----2------2---2------2----2------- 
----0---------2----4-----0------------------------- 
-----------------------------------0--------------- 
-----------------------------------------2---------



------------------------------------------------------------
------------------------------------------------------------ 
--77777-------------77777--------------77777---------------- 
--77777-444--555----77777-444--555-----77777--444--555------ 
--55555-444--555----55555-444--555-----55555--444--555------ 
--------222--333----------222--333------------222--333------ 

------------------------------------------------------------
------------------------------------------------------------ 
--77777-------------77777--------------77777---------------- 
--77777-444--555----77777-444--555-----77777--444--555------ 
--55555-444--555----55555-444--555-----55555--444--555------ 
--------222--333----------222--333------------222--333------ 

--------------------------------------
--------------------------------------
--------------------------------------
---77777----4----5----77777----4----5-  = Ahogando 
---------00---00------------00----00--
--------------------------------------

-----------------
-----------------
-----------------
--7777777777-----
--7777777777-----
--5555555555-----



verse 1
tal ves sea...
-------------------------------------
-------------------------------------
------------------77777--------------
--44444---55555---77777---77777------
--44444---55555---55555---77777------
--22222---33333-----------55555------  x 4



chorus
pero yo no te dejare...
---------------------------------------------
---------------------------------------------
--------------777777---------------777777----
--4--45-55----777777---4—-45-55----777777----
--4--45-55----555555---4--45-55----555555----
--2--23-33-------------2—-23-33--------------

los tambores...
-------------------------------------
-------------------------------------
------------------77777--------------
--44444---55555---77777---77777------
--44444---55555---55555---77777------
--22222---33333-----------55555------ 

-----------------------------------------
-----------------------------------------
----------------------7------------------
--44444---55—-5-5-5---7------------------
--44444---55—-5-5-5---5------------------
--22222---33—-3-3-3----------------------


verso 2
aunque juras...
-------------------------------------
-------------------------------------
------------------77777--------------
--44444---55555---77777---77777------
--44444---55555---55555---77777------
--22222---33333-----------55555------  x 4


* chorus


alter chorus 
--7------/*/*/*/*/*/*/*/*/*/*/*/*/*/*/*/*/*/*/*/*/*/*/*/*/*/-------
--7----------------------------------------------------------------
--5----------------------------------------------------------------


----------------------------------------------------
----------------------------------------------------
---777777-----------------777777--------------------
---777777---444--555------777777----777—-555--------
---555555---444--555------555555----777—-555--------
------------222--333----------------555--333-------- x 4


final part
tal seas tu
--------------------
--------------------
---7----------------
---7----4---5---7---
---5----4---5---7---
--------2---3---5---   x 2 



outro
part 1       x 2
---9-9-9-9-9-9-9-9—10—9-9-9-9-9-9-9-9-10—12-12-12-12-12-12-12-12—- 


-----------------------
-----------------------
-----------------------
-----------------------  
10-10-10-10-10-10-10-10
-----------------------

part 2 
---12-12-12-12-12—12-12-12-11—12-12-12-12-12-12-12-12—11-12-12-12- 

--12-12-12-12-12-11-11-11-11-11-9-9-9-9-----------------------------

--11-12-12-12-12-12—12-12-12-11—12-12-12-12-12-12-12-12—11-12-12-12--

---------------------------------------------
---------------------------------------------
---------------------------------------------
12-12-12-12-12-14-14-14-14-14—-14-12-12-11-12
---------------------------------------------
---------------------------------------------



/*/*/*/  =  deslizar la pua por la cuerda
            
Submit corrections

comments powered by Disqus
↑ Back to top | Division Minuscula Tabs for Vamos A Jugar!. Lyrics for acoustic guitar and electric guitar. Tablatures and chords are parodies/interpretations of the original songs. You may use it for private study, scholarship, research or language learning purposes only