» » »

Division Minuscula, Televidente Bass tabs (ver.1)

Artists:  A B C D E F G H I J K L M N O P Q R S T U V W X Y Z # 

Televidente Bass tabs (ver.1)

Division Minuscula Tabs
 Rating:
4/5 (4 votes)
Televidente lessons Tabs too difficult? Try these video lessons and learn fast
                INTRO    
                                 (x2)
G|-----------------------------------|
D|-----------------------------------|
A|--7777-9999-5-----7777-9999-9h12---|
E|-----------------------------------|

G|-----------------------------------|
D|-----------------------------------|
A|--55-55-55-55-57-------------------|
E|-----------------------------------|


1ER VERSO

                     (x3)  
G|-----------------------|--------------------|
D|-----------------------|--------------------|
A|------------4444-5555--|--55555555-77777777-|
E|--55555555-------------|--------------------|

                  (x3)  
G|-----------------------|--------------------|
D|-----------------------|--------------------|
A|------------4444-5555--|--55555555-77777777-|
E|--55555555-------------|--------------------|


CORO

Por favor sin interrupción...

G|----------------------|
D|----------------------|
A|-------7777-9999-5555-|
E|--5555----------------|

Odio Tener Que Esperar...

G|----------------------------|
D|----------------------------|
A|-------7777-55-55-55-55-57--|
E|--5555----------------------|


2DO VERSO

                     (x3)  
G|-----------------------|--------------------|
D|-----------------------|--------------------|
A|------------4444-5555--|--55555555-77777777-|
E|--55555555-------------|--------------------|


CORO

Por favor sin interrupción...

G|----------------------|
D|----------------------|
A|-------7777-9999-5555-|
E|--5555----------------|

Odio Tener Que Esperar...

G|----------------------------|
D|----------------------------|
A|-------7777-55-55-55-55-57--|
E|--5555----------------------|

La Intriga No Dejara...

G|----------------------|
D|----------------------|
A|-------7777-9999-5555-|
E|--5555----------------|

Dependiendo de Una...

G|----------------------------|
D|----------------------------|
A|-------7777-55-55-55-55-57--|
E|--5555----------------------|


SOLO GUITARRA

                                 (x4)
G|-----------------------------------|-----|
D|-----------------------------------|-----|
A|--7777-9999-5-----7777-9999-9h12---|-5-5-|
E|-----------------------------------|-----|

No Me Importa El Rating.... (en esta parte no hay bajo)

Yo No Pido Nada , Nada Solo...

G|-------------|  G|-------------|
D|-------------|  D|-------------|
A|-----5-5-----|  A|------7------|
E|-------------|  E|-------------|

CORO

Por favor sin interrupción...

G|----------------------|
D|----------------------|
A|-------7777-9999-5555-|
E|--5555----------------|

Odio Tener Que Esperar...

G|----------------------------|
D|----------------------------|
A|-------7777-55-55-55-55-57--|
E|--5555----------------------|

La Intriga No Dejara...

G|----------------------|
D|----------------------|
A|-------7777-9999-5555-|
E|--5555----------------|

Dependiendo de Una Simple Y Vaga Historia

G|----------------------------|
D|----------------------------|
A|-------7777-55-55-55-55-57--|
E|--5555----------------------|

Simple Y Vaga Historia..

G|------------------|
D|------------------|
A|--55-55-55-55-57--|
E|------------------|

Y Esa Historia Tiene Que Terminar.


G|------------------|
D|------------------|
A|--55555555-777----|
E|---------------5--|
            
Submit corrections

comments powered by Disqus
↑ Back to top | Division Minuscula Bass for Televidente. Lyrics for acoustic guitar and electric guitar. Tablatures and chords are parodies/interpretations of the original songs. You may use it for private study, scholarship, research or language learning purposes only