» » »

Soundtrack Tabs (ver.1)

Artists:  A B C D E F G H I J K L M N O P Q R S T U V W X Y Z # 

Soundtrack Tabs (ver.1)

Division Minuscula
Rating:
5/5 (1 vote)

Hard to play? Try these video lessons and learn fast.
                BUENO A MI ME EMPEZO A GUSTAR DIVISION MINUSCULA HACE POKO Y
ESTA CANCION ESTA CHIDA Y LE MANDO SALUDOS A MI AMIGO FRANCISCO
A GEOVANNA Y AMI.


INTRO
   GUITARRA 1
e|----------------------  ----------------------------------|
b|----------------------  ----------------------------------|
g|--8888--333--4444544--  --8888--999-9/10/9/10/9/10/9/10/9-|
d|--8888--333--4444444--X2--8888--999-----------------------|X2
a|--6666--111--2222222--  --6666--777-----------------------|
e|----------------------  ----------------------------------|
 |
 |
 |   GUITARRA 2
e|----------------------  ----------------------------------|
b|----------------------  ----------------------------------|
g|--8888--333--4444544--  --8888--999999999999999999999999--|
d|--8888--333--4444444--X2--8888--9999999999999999999999999-|X2
a|--6666--111--2222222--  --6666--7777777777777777777777777-|
e|----------------------  ----------------------------------|

ESTO SE TOCA CUANDO ES LA 2º VEZ DEL INTRO
    GUITARRA 3
e|--------------------------------------------------------------|
b|--------------------------------------------------------------|
g|--------------------------------------------------------------|
d|-/6---6-4-----4-/6---6-4-----4-/6---6-4-----------------------|
a|----6-----7-7------6-----7-7------6-----7-7-------------------|
e|--------------------------------------------------------------|
 |  GUITARRA 1
e|--------------------------------------------------------------|
b|---------------------------------------------9/10/9/10/9/10/9-|
g|--------------------------------------------------------------|
d|--------------------------------------------------------------|
a|--------------------------------------------------------------|
e|--------------------------------------------------------------|

 VERSO "ES LA COSA SOBRE LA ARENA Y BAJO EL MAR..."
e|----------------------------------------------------------------|
b|----------------------------------------------------------------|
g|-11-x-x-11-x-x--------8-x-x-8-x-x--------86666-------1111111111-|
d|-11-x-x-11-x-x-999999-8-x-x-8-x-x-999999-86666-99999-1111111111-|
a|-9--x-x-9--x-x-999999-6-x-x-6-x-x-999999-66666-99999-9-9-9-9-9--|
e|---------------777777-------------777777-------77777------------|

 PUENTE  GUITARRA 1
e|----------------------  --------------------------|
b|----------------------  --------------------------|
g|--8888--333--4444544--  --8888--999-999999-9------|
d|--8888--333--4444444--X2--8888--999-999999-9------|
a|--6666--111--2222222--  --6666--777-666666-6------|
e|----------------------  --------------------------|
 |  GUITARRA 2
e|--------------------------------------------------------|
b|--------------------------------------------------------|
g|--------------------------------------------------------|
d|---------------------------888888888888888-8------------|
a|---------------------------666666666666666-6------------|
e|--------------------------------------------------------|
                             PM...............

VERSO "HEY EN DONDE ESTOY ACASO ESTA ES NUESTRA..."
e|-----------------  --------------------------------------------|
b|-----------------  --------------------------------------------|
g|-----------------  --------------------------------------------|
d|-88888888--------X2--1111111111111111-131313131313-99999999999-|
a|-66666666-999999-  --9-9-9-9-9-9-9-9--111111111111-77777777777-|
e|----------777777-  --------------------------------------------|
 PM........ PM....    PM.............. PM........... PM.........

ALA SEGUNDA VEZ QUE SE TOCA LO DE ARRIBA SE TOCA ESTO

e|--------------------  ---------------|
b|--------------------  ---------------|
g|-8-8-8998-8-8898----  -888888888888--|
d|-8-8-8888-8-8888----X3-888888888888--|
a|-6-6-6666-6-6666----  -666666666666--|
e|--------------------  ---------------|
 |
e|------------------------------------------------------------|
b|--------------------------------------9/10/9/10/9/10/9/10/9-|
g|------------------------------------------------------------|
d|------------------------------------------------------------|
a|------------------------------------------------------------|
e|------------------------------------------------------------|

 CORO "NO SOY EL MISMO QUE EL DE AYER...·"
e|----------------------  ----------------------------------|
b|----------------------  ----------------------------------|
g|--8888--333--4444544--  --8888--999-9/10/9/10/9/10/9/10/9-|
d|--8888--333--4444444--X2--8888--999-----------------------|X2
a|--6666--111--2222222--  --6666--777-----------------------|
e|----------------------  ----------------------------------|
 |
 |
e|--------------------------------------------------------|
b|--------------------------------------------------------|
g|--------------------------------------------------------|
d|-/6---6-4-----4-/6---6-4-----4-/6---6-4-----------------|X2
a|----6-----7-7------6-----7-7------6-----7-7-------------|
e|--------------------------------------------------------|

 OUTRO  GUITARRA 1
e|-----------------------------------  -------------------|
b|-9-10-9-12-9---9---9---9-10-9-10---  -------------------|
g|-------------8---8---8-------------  -1313131313--------|
d|-----------------------------------X8-1313131313--------|
a|-----------------------------------  -1111111111--------|
e|-----------------------------------  -------------------|

 GUITARRA 2
e|------------|--------------------------------------------------|
b|------------|--------------------------------------------------|
g|------------|--------------------------------------------------|
d|------------|-666666-------------------------------------------|
a|-2-4---2-4--|-666666-------------------------------------------|
e|4---0-4---0-|-444444-4-2/4-2/4-2/4-2/4-2/4-2/4-6/8-6/8-6/8-6/8-|


e|---------------------|
b|---------------------|
g|---------------------|
d|-66666---------------|
a|-66666---------------|
e|-44444---------------|

DESPUES VA ESTO COMO UN INTERMEDIO
e|-----------------------------|
b|-----------------------------|
g|------------4444-222---------|
d|-6666--222--4444-222---------|X2
a|-6666--222--2222-000---------|
e|-4444--000-------------------|

CORO "NO SOY EL MISMO QUE EL DE AYER...·"
e|----------------------  ----------------------------------|
b|----------------------  ----------------------------------|
g|--8888--333--4444544--  --8888--999-9/10/9/10/9/10/9/10/9-|
d|--8888--333--4444444--X2--8888--999-----------------------|X2
a|--6666--111--2222222--  --6666--777-----------------------|
e|----------------------  ----------------------------------|
 |
 |
e|--------------------------------------------------------|
b|--------------------------------------------------------|
g|--------------------------------------------------------|
d|-/6---6-4-----4-/6---6-4-----4-/6---6-4-----------------|X2
a|----6-----7-7------6-----7-7------6-----7-7-------------|
e|--------------------------------------------------------|

 FIN
e|-----------------------9---9---9---9----|
b|-----7----7---7----7----7---7---7---7---|
g|-8-9--8-9--8-9--8-9---9---9---9---9-----|
d|----------------------------------------|X2
a|----------------------------------------|
e|----------------------------------------|
 |
e|----------------------------------------|
b|------------15----17--------------------|
g|-8--------------------------------------|
d|----------------------/15---15/8--------|
a|----------------------------------------|
e|----------------------------------------|

bueno eso es todo espero que les aya servido por que es una gran rola de
division minuscula dudas alli esta mi correo
            
Hard to play? Try these video lessons and learn fast. | Correct




comments powered by Disqus
↑ Back to top | Tablatures and chords are parodies/interpretations of the original songs. You may use it for private study, scholarship, research or language learning purposes only