>
 >
Sismo

Sismo Guitar Tabs

Division Minuscula - Sismo chords, tabs, tablatures, lyrics

Guitar lessons | Add/correct | Request | Top 50 tabs Artists:  A B C D E F G H I J K L M N O P Q R S T U V W X Y Z 0-9

Sismo Guitar Tabs – Division Minuscula

CD, Sheet music, Poster

Do you like Sismo? Share with your friends now
ChordsTabsUkulele
Bueno este es mi primer tab jajaja m kosto trabajo acerlo es de la rola sismo muy padre por cierto
la kancion esta facil el tab esta kreo k al 100% correcto a lo mjor tenga una falla bueno disfrutenla
buena rola para rockear!! la tuve que hacer pk nadie la ha subido creo k no la han zakado bueno suerte
y a rockear weyes!!

|--------------------------------------------|
|-10-10--10-b-12-10------10-10-10--12-12-12--|
|-10-10--10---12-10-X3---10-10-10--12-12-12--|Esto lo hace la primera
|--------------------------------------------|guitarra 3 veces!
|--------------------------------------------|
|--------------------------------------------|

|------|
|---10-|La segunda guitarra hace esto lo hace 16 veces
|---10-|solo tienen que golpear 16 veces pero deben de llevar
|------|el tiempo de la tarola cada vez que golpee la tarola
|------|se de el golpe en la guitarra
|------|

|---------------------------------------------------------------------------!!Esto lo ace primero la segunda lira
|10-10\5-5---------------------5-5-5----------------------------------------!!mientras la primera ace lo de arriba
|10-10\5-5---------------------5-5-5--|una vz y leugo las dos acen lo mismo-!!
|---------7-7--7-5-7-X2--7-7-7----------------------------------------------!!escuchen la cancion para agarrarle
|---------7-7--7-5-7-----7-7-7----------------------------------------------!!la onda
|---------------------------------------------------------------------------!!


lo hace no se cuantas veces

llegar al pre-coro
|--7-X3-------------------7-X3-------------------7-X3--------------------7-X3---------------|
|--7----8-X3-10-X2--------7----7-X3--8-X2--------7---7-X3--10-X2---------7-----8-X3--101010-|
|--5----8----10-----------5----7-----8-----------5---7-----10------------5-----8-----101010-|
|-------6----8-----------------5-----6---------------5-----8-------------------6-----8-8-8--|
   ...............PM       .............PM           ...........PM      .........PM

|----0---5---8-------0---5------------------------|
|-----6---6-----------6---6--6--------------------|Esto lo hace la 2a guitarra hasta el pre-coro
|--7---7---7-------7---7---7----------------------|
|-------------------------------------------------|
|-------------------------------------------------|
|-------------------------------------------------|

|-------------------------------------------------|
|------------------------/------------------------|
|------------------------/------------------------|Esto es el pre coro
|-8-X4--10-X3--7-X4-8-X2-/X3---8-X8--10-X8--------|
|-8-----10-----7----8----/-----8-----10-----------|
|-6-----8------5----6----/-----6-----8------------|

|-------------------------------------------------------------------------------------------|
|-------------------------------------------------------------------------------------------|
|--7-X3-------------------7-X3-------------------7-X3--------------------7-X3---------------|1era guitarra
|--7----8-X3-10-X2--------7----7-X3--8-X2--------7---7-X3--10-X2---------7-----8-X3--101010-|
|--5----8----10-----------5----7-----8-----------5---7-----10------------5-----8-----101010-|
|-------6----8-----------------5-----6---------------5-----8-------------------6-----8-8-8--|
   ...............PM       .............PM           ...........PM      .........PM

|----0---5---8-------0---5------------------------|
|-----6---6-----------6---6--6--------------------|2da guitarra
|--7---7---7-------7---7---7----------------------|
|-------------------------------------------------|
|-------------------------------------------------|
|-------------------------------------------------|

|--------------------------------------------------|
|------------------------/-------------------------|
|------------------------/-------------------6-X6--|
|-8-X4--10-X3--7-X4-8-X2-/X3---8-X8--10-X6---x-----|esto si es el pre coro
|-8-----10-----7----8----/-----8-----10------4-----|
|-6-----8------5----6----/-----6-----8-------------|

CORO
|-----------------------------------------------------|
|--------------------------/--------------------------|
|-7-X8---5-X8---3-X8--5-X8-/X3----------3-X8--5-X8----|
|-7------5------3-----5----/------7-X8--3-----5-------|
|-5------3------1-----3----/------7-----1-----3-------|
|---------------------------------5-------------------|

|-----------------------------------------------------------------------|La segunda guitarra lo hace 4 veces
|-10-10-10\5-5-----3-3------3--3-3----3-3------3-3-3----3-3-3---5-5-5---|la primera 2 veces y luego hace lo d abajo
|-10-10-10\5-5-----2-2--0h2p0--0-2----2-2--0h2p0-0-2----2-2-2---5-5-5---|
|-----------------------------------------------------------------------|
|-----------------------------------------------------------------------|
|-----------------------------------------------------------------------|

|------------------------------------------------|
|--10-10--10-b-12-10---------10-10-10--12-12-12--|Esto es lo que hace la primera despues de que
|--10-10--10---12-10----X3---10-10-10--12-12-12--|hace 2 veces lo d arriba
|------------------------------------------------|
|------------------------------------------------|


|------------------------------------------------------|
|------------------------/-----------------------------|Esta es la parte donde se queda la guitarra
|------------------------/-------------------6-////----|con la voz a lo ultimo solo corren el acorde
|-8-X4--10-X3--7-X4-8-X2-/X3---8-X8--10-X6---x-////----|asta el traste 1 para darle el efecto
|-8-----10-----7----8----/-----8-----10------4-////----|
|-6-----8------5----6----/-----6-----8-----------------|
..........................PM

CORO
|-----------------------------------------------------|
|--------------------------/--------------------------|  Solo pongo una guitarra pk la otra
|-7-X8---5-X8---3-X8--5-X8-/X3----------3-X8--5-X8----|X2no saque bien lo que lleva pero parece
|-7------5------3-----5----/------7-X8--3-----5-------|  que leva lo mismo pero octavado pero aun asi
|-5------3------1-----3----/------7-----1-----3-------|  suena bien!!
|---------------------------------5-------------------|


|------------------------------------------------|
|--10-10--10-b-12-10---------10-10-10--12-12-12--|Esto lo hace la 1a guitarra
|--10-10--10---12-10----X3---10-10-10--12-12-12--|
|------------------------------------------------|
|------------------------------------------------|
|------------------------------------------------|

|---------------------------------------------|
|--10-10\5-5-----------------------5-5-5------|Esto lo hace la 2a guitarra
|--10-10\5-5-----------------------5-5-5------|mientras la primera hace lo d arriba
|-------------7-7--7-5-7-X2--7-7-7------------|
|-------------7-7--7-5-7-----7-7-7------------|
|---------------------------------------------|


|--------------------------------------------------|
|--10-10--10-b-12-10---------10-10-10--12----12///-|Gran final!! a lo ultimo korren el akorde asta
|--10-10--10---12-10----X3---10-10-10--12----12///-|el traste uno para darle el efecto
|--------------------------------------------12///-|
|--------------------------------------------------|
|--------------------------------------------------|





Comments


Popular Division Minuscula tabs & chords
Televidente Bass Tabs
Cada Martes Tabs
Control Intro 1 Tabs
Me Tome Una Pastilla Tabs
Negligencia Tabs
Radical Tabs
Sognare 1 Tabs
Un Beso Al Aire Y Un Tiro Al Pecho.. Tabs
Veneno Es Antidoto Sos Tabs
Sognare Ukulele


Song lyrics



↑ Back to top | Tablatures and chords are parodies/interpretations of the original songs. You may use it for private study, scholarship, research or language learning purposes only
© 2014 AZChords.com Contact us | Privacy policy | DMCA | Add/correct tabs | Request tabs | Top 50 tabs