>
 >
Simple

Simple Guitar Tabs

Division Minuscula - Simple chords, tabs, tablatures, lyrics

Guitar lessons | Add/correct | Request | Top 50 tabs Artists:  A B C D E F G H I J K L M N O P Q R S T U V W X Y Z 0-9

Simple Guitar Tabs – Division Minuscula

CD, Sheet music, Poster

Do you like Simple? Share with your friends now
Tabs
Esta la version del demo esta mas chida q la del disco y ps aki ta jaja


TqM mi PrinCEsA !!!!

Intro x 1: Guitarra 1

e|----------------------------------------------------------------------|
B|----------------------------------------------------------------------|
G|----------------------------------------------------------------------|
D|-----33----33----3-3----33----33---3-3--------------------------------|
A|-111----111---111----000---000--000-------55----55---5-5----33----33--|
E|---------------------------------------333---333--33-----111---111----|

e|------------------------------------------------------------------------|
B|------------------------------------------------------------------------|
G|------------------------------------------------------------------------|
D|-----33----33----3-3----33----33---3-3----------------------------------|
A|-111----111---111----000---000--000-------55----55---5-5--3-3-3-3-3-----|
E|---------------------------------------333---333--33------1-1-1-1-1-----|

Intro 2: x 2                                     Esto solo va la 2da vez
e|---------------------------------------------------I------------|
B|---------------------------------------------------I------------|
G|----3////--------------------8////-----8-//--7--5--I--3x--------|
D|----3////--------3////-------8////-----8-//--7--5--I--3x--------|
A|----1////--------3////-------6////-----6-//--5--3--I--1x--------|
E|-----------------1////-----------------------------I------------|


Intro: x 1: Guitarra 2 (Escuchen bien no empieza con la guitarra 1
empieza 2 segundos despues)


e|----------------------------------------------------------------------|
B|----------------------------------------------------------------------|
G|----2h3-3---2h3-3---2h3----2h3-3---2h3-3---2h3---2h3-3---2h3-3--2h3---|
D|-33-------33------33-----55------55------55----11------11------11-----|
A|----------------------------------------------------------------------|
E|----------------------------------------------------------------------|

e|---------------------------------------------------------------------|
B|---------------------------------------------------------------------|
G|---2h3-3---2h3-3---2h3---2h3-3----2h3-3---2h3----2h3-3---2h3-3---2h3-|
D|-33------33------33----33-------33------33-----55------55------55----|
A|---------------------------------------------------------------------|
E|---------------------------------------------------------------------|

-------------------|
-------------------|
---2h3-3---2h3-3---|
-11------11--------|
-------------------|
-------------------|


Intro 2: x 2                                        Esto solo va la 2da vez
e|------------------------------------------------------I----------------|
B|------------------------------------------------------I----------------|
G|------------------------------------------------------I----------------|
D|------------------------------------------------------I-----33---33----|
A|---8-6-5-555----8-6-5-555---8-6-5-555--666----3/5--3--I--111--111--1---|
E|------------------------------------------------------I----------------|

Verso:
Intente dormir y no soņar....
Tal vez fue...
Guitarra 1 (limpia y arpegiada) x 2
e|---------------------------------------------------------------|
B|---------------------------------------------------------------|
G|-----3-----3--------3-----3--------3-----3---------3-----3-----|
D|---3---3----------3---3----------3---3-----------3---3---------|
A|-1-------1------0-------0--------------------------------------|
E|------------------------------3-------3--------1-------1-------|

Guitarra 2 (Distor) x 2

e|---------------------------------------------------------------|
B|---------------------------------------------------------------|
G|-----3-3-33-----------3-3-33-----------------------------------|
D|---3---3-33---------3---3-33----5-5-5---5-55----3-3-3---3-33---|
A|-1-----1-11-------0-----0-00----5-5-5---5-55----3-3-3---3-33---|
E|--------------------------------3-3-3---3-33----1-1-1---1-11---|
PM         *                *               *               *

Interludio: x 1
Le temo a la oscuridad...

Guitarra 1
e|---------------------------------------------------------------|
B|---------------------------------------------------------------|
G|-888888888888---333333333333-----------------------------------|
D|-888888888888---333333333333-----------------------------------|
A|-666666666666---111111111111-----------------------------------|
E|---------------------------------------------------------------|

Guitarra 2

e|---------------------------------------------------------------|
B|---------------------------------------------------------------|
G|-----------------3p2-333-2-3-----------------------------------|
D|-1111111111111-------------------------------------------------|
A|---------------------------------------------------------------|
E|---------------------------------------------------------------|

Guitarra 1 x 1
(Se dejasonando , hasta que empieza la segunda oracion)

Tomando el tiempo para escuchar...Tomando el tiempo para desglozar.....
e|---------------------------------1----------1------------1------------1--|
B|-------------------------------------------------------------------------|
G|-3////////-------------------3-----3-3---3-----3-3---3-----3-3----3------|
D|-3////////---------------------3----3------3----3------3----3-------3----|
A|-1///////----------------------------------------------------------------|
E|-------------------------------------------------------------------------|

Guitarra 2 x 2 (Hay que escuchar bn para sacar el ritmo lleva pm)

e|------------------------------------------------------------|
B|------------------------------------------------------------|
G|----33-33-33-33---33-33-33-33-------------------------------|
D|----33-33-33-33---33-33-33-33--55-55-55-55----33-33-33-33---|
A|----11-11-11-11---00-00-00-00--55-55-55-55----33-33-33-33---|
E|-------------------------------33-33-33-33----11-11-11-11---|


Guitarra 1: x 2

.Nada mas..... simplemente.... .......si esto durara
. Gracias.....
e|---------------------------------------------------------------|
B|---------------------------------------------------------------|
G|-------8/10--888888888888888888888--------10101010-------------|
D|-------8/10--888888888888888888888-888888-10101010-------------|
A|-------6/8---666666666666666666666-888888-8-8-8-8--------------|
E|-----------------------------------666666----------------------|

Guitarra 2: x 2


e|-------1/3-1--111111111111111111111444444443333333-------------|
B|---------------------------------------------------------------|
G|---------------------------------------------------------------|
D|---------------------------------------------------------------|
A|---------------------------------------------------------------|
E|---------------------------------------------------------------|


Maņana un dia nuevo sera...
Guitarra 1
e|---------------------------------------------------------------|
B|---------------------------------------------------------------|
G|-888888888888---333333333333-----------------------------------|
D|-888888888888---333333333333-----------------------------------|
A|-666666666666---111111111111-----------------------------------|
E|---------------------------------------------------------------|

Guitarra 2
e|---------------------------------------------------------------|
B|---------------------------------------------------------------|
G|-----------------3p2-333-2-3-----------------------------------|
D|-1111111111111-------------------------------------------------|
A|---------------------------------------------------------------|
E|---------------------------------------------------------------|

Guitarra 1
Intro 2: x 2                                      Esto solo va la 2da vez
e|---------------------------------------------------I------------|
B|---------------------------------------------------I------------|
G|----3////--------------------8////-----8-//--7--5--I--3x--------|
D|----3////--------3////-------8////-----8-//--7--5--I--3x--------|
A|----1////--------3////-------6////-----6-//--5--3--I--1x--------|
E|-----------------1////-----------------------------I------------|

Guitarra 2
Intro 2: x 2
e|-------------------------------------------------------|I
B|-------------------------------------------------------|I
G|-------------------------------------------------------|I
D|-------------------------------------------------------|I
A|---8-6-5-555----8-6-5-555---8-6-5-555--666----3/5--3---|I
E|-------------------------------------------------------|I

Intente....
Continua Guitarrra 1 y 2 (Limpio) x 2

e|--------------------------------------------------------|
B|--------------------------------------------------------|
G|----3333-33-33---3333-33-33-----------------------------|
D|----3333-33-33---3333-33-33--5555-55-55----3333-33-33---|
A|----1111-11-11---0000-00-00--5555-55-55----3333-33-33---|
E|-----------------------------3333-33-33----1111-11-11---|

Esto es opcional, lo hace un piano y se escucha de fondo lo
podria hacer cualquiera
de las 2 guitarras en limpio x 2

e|-------18-18-------18-18------18-18------18-------------------|
B|-------------18----------18---------18------18-18-------------|
G|--------------------------------------------------------------|
D|--------------------------------------------------------------|
A|--------------------------------------------------------------|
E|--------------------------------------------------------------|

Guitarra 1: x 2

.Nada mas..... simplemente.... .......si esto durara
. Gracias.....

 Limpio    Distor
e|------I---------------------------------------------------------|
B|------I---------------------------------------------------------|
G|-8888-I-8/10--888888888888888888888--------10101010-------------|
D|-6666-I-8/10--888888888888888888888-888888-10101010-------------|
A|-6666-I-6/8---666666666666666666666-888888-8-8-8-8--------------|
E|------I-----------------------------666666----------------------|

Guitarra 2: x 2


e|-------1/3-1--111111111111111111111444444443333333---------------|
B|-----------------------------------------------------------------|
G|-----------------------------------------------------------------|
D|-----------------------------------------------------------------|
A|-----------------------------------------------------------------|
E|-----------------------------------------------------------------|

Maņana un dia nuevo sera...
Guitarra 1
e|---------------------------------------------------------------|
B|---------------------------------------------------------------|
G|-888888888888---333333333333-----------------------------------|
D|-888888888888---333333333333-----------------------------------|
A|-666666666666---111111111111-----------------------------------|
E|---------------------------------------------------------------|

Guitarra 2
e|---------------------------------------------------------------|
B|---------------------------------------------------------------|
G|-----------------3p2-333-2-3-----------------------------------|
D|-1111111111111-------------------------------------------------|
A|---------------------------------------------------------------|
E|---------------------------------------------------------------|

Guitarra 1
Intro 2: x 2
e|----------------------------------------------------|I
B|----------------------------------------------------|I
G|----3////--------------------8////-----8-//--7--5---|I
D|----3////--------3////-------8////-----8-//--7--5---|I
A|----1////--------3////-------6////-----6-//--5--3---|I
E|-----------------1////------------------------------|I

Guitarra 2
Intro 2: x 2
e|-------------------------------------------------------|I
B|-------------------------------------------------------|I
G|-------------------------------------------------------|I
D|-------------------------------------------------------|I
A|---8-6-5-555----8-6-5-555---8-6-5-555--666----3/5--3---|I
E|-------------------------------------------------------|I

Final
Guitarra 1 y 2

e|------------------------------|
B|------------------------------|
G|--3////////-------------------|
D|--3////////-------------------|
A|--1////////-------------------|
E|------------------------------|





Comments


Popular Division Minuscula tabs & chords
Televidente Bass Tabs
Control Chords
Feliz 1er Aniversario Chords
Cada Martes Intro Tabs
Control Tabs
Division Minuscula - Cursi Tabs
Sognare Tabs
Tan Fuerte Tan Fragil Intro Tabs
Prestame Tu Piel Ukulele
Veneno Es Antidoto Ukulele


Song lyrics



↑ Back to top | Tablatures and chords are parodies/interpretations of the original songs. You may use it for private study, scholarship, research or language learning purposes only
© 2014 AZChords.com Contact us | Privacy policy | DMCA | Add/correct tabs | Request tabs | Top 50 tabs