» » »

Division Minuscula, Poliuretano Tabs (ver.1)

Artists:  A B C D E F G H I J K L M N O P Q R S T U V W X Y Z # 

Poliuretano Tabs (ver.1)

Division Minuscula Tabs
 Rating:
4/5 (4 votes)
Poliuretano lessons Tabs too difficult? Try these video lessons and learn fast
1
                intro

- --------------------------------------------
- --------------------------------------------
- --------------------------------------------
- ----66-55-66-------66-55-33-----------------
- -66-44-33-44----66-44-33-11-----------------
- -44-------------44--------------------------


- -------------------------------------------- 
- --------------------------------------------
- --------------------------------------------
- -----xx6-xx5-xx6-------xx6-xx5-xx3----------
- -xx6-xx4-xx3-xx4---xx6-xx4-xx3-xx1----------
- -xx4---------------xx4----------------------


- --------------------------------------------
- --------------------------------------------
- --------------------------------------------
- -----xx6-xx5-xx6-------xx6-5-4-3------------
- -xx6-xx4-xx3-xx4---xx6-xx4-3-2-1------------
- -xx4---------------xx4----------------------


- -------------------------------------------- x4
- --------------------------------------------
- --------------------------------------------
- ----6x6x6--33-------------------------------
- -66-4x4x4--11--421-0-1244--------------------
- -44-----------------------------------------


- --------------------------------------------
- --------------------------------------------
- --------------------------------------------
- --------------------------------------------
- -66x66666x66--346---------------------------
- -44x44444x44--124---------------------------


- --------------------------------------------
- --------------------------------------------
- -\5-4-0-----\7------------------------------
- --------------------------------------------
- --------------------------------------------
- --------------------------------------------


la vida........

- --------------------------------------------
- --------------------------------------------
- --------------------------------------------
- --------------------------------------------
- ----------6/8\6-------666\8-----------------
- -6666-666-4/6\4--3333-444\6-----------------
- -4444-444--------1111-----------------------


pues llamame un.....

- -------------------------------------------- x3
- --------------------------------------------
- --------------------------------------------
- -6--8---------------------------------------
- -4--6--6--3---------------------------------
- -------4--1---------------------------------


se convierte en...........

- --------------------------------------------
- --------------------------------------------
- --------------------------------------------
- -6--8---------------------------------------
- -4--6---------------------------------------
- --------------------------------------------

poliuretano........

- -------------------------------------------- x3
- --------------------------------------------
- --------------------------------------------
- -----6-8------------------------------------
- -6-3-4-6------------------------------------  
- -4-1----------------------------------------
            
Submit corrections

comments powered by Disqus
↑ Back to top | Division Minuscula Tabs for Poliuretano. Lyrics for acoustic guitar and electric guitar. 1 Tablatures and chords are parodies/interpretations of the original songs. You may use it for private study, scholarship, research or language learning purposes only