» » »

Namigo Tabs (ver.1)

Artists:  A B C D E F G H I J K L M N O P Q R S T U V W X Y Z # 

Namigo Tabs (ver.1)

Division Minuscula
Rating:
0/5 (0 votes)

Hard to play? Try these video lessons and learn fast.
                Esta es solo la guitarra 1

INTRO
e|---------------------------||-------------------------------------------|
B|---------------------------||-------------------------------------------|
G|-9-xx----------------------||--7-7-7----7-7-7-------7-7-7—-7-9-7--------|
D|-9-xx-10-xx-12/13/9-9/7/10-||-5-----5--5-----5--5—-5-----5------7-5-7-5-|
A|-7-xx-10-xx-12/13/9-9/7/10-||-------------------------------------------|
E|-------8-xx-10/11/7-7/5/8--||-------------------------------------------|X2
escuchen la cancion para q vean el ritmo y como van los palms

TERMINA EN
e|---|
B|---|
G|-9-|
D|-9-|
A|-7-|
E|---|

VERSO
e|-----------||----|
B|-----------||----|
G|-9---------||----|
D|-9-10-12-9-||-10-|
A|-7-10-12-9-||-10-|
E|---8—-10-7-||-8--|
estas son las tabs del verso, escuchenla y saquen el ritmo

SE REPITE INTRO PERO AHORA ES EN CORO

e|-------------------||-------------------|
B|-------------------||-------------------|
G|-9-9--12-12—-16-16-||-16-14-12-16-14-12-|
D|-9-9--12-12—-16-16-||-------------------|
A|-7-7--10-10—-14-14-||-------------------|
E|-------------------||-------------------| TODO X2

esto es es solo, los puntos suspensivos quieren decir q sigue asi
hasta q ya escuchandola se den cuenta d q acaba
e|-----------------------------------------------|
B|-----------------------------------------------|
G|-----------------------------------------------|
D|-7/9-9-9-9-6-9/7-7-7-7-5-7/9-9-9-9-6-9/7-7-7-7-|...
A|-----------------------------------------------|
E|-----------------------------------------------|

e|--------------------------------------------------------|
B|--------------------------------------------------------|
G|-9-9-10-10-12-12-12/13-10—9-9-10-10-12-12-12/13-10-9-9--|..
D|--------------------------------------------------------|
A|--------------------------------------------------------|
E|--------------------------------------------------------|

e|-------------------------------------------------------------|
B|-------------------------------------------------------------|
G|-12-12-13-13-15-15-15/16-13-12-12-13-13-15-15-15/16-13-12-12-|..
D|-------------------------------------------------------------|
A|-------------------------------------------------------------|
E|-------------------------------------------------------------|

e|----|
B|----|
G|----|
D|-10-|
A|-10-|
E|-8--|

INTRO(coro), VERSO

TERMINA
e|-----|
B|-----|
G|-----|
D|-9-9-|
A|-9-9-|
E|-7-7-|
            
Hard to play? Try these video lessons and learn fast. | Correct




comments powered by Disqus
↑ Back to top | Tablatures and chords are parodies/interpretations of the original songs. You may use it for private study, scholarship, research or language learning purposes only