>
 >
Las Luces De Esta Ciudad

Las Luces De Esta Ciudad Bass Tabs

Division Minuscula - Las Luces De Esta Ciudad chords, tabs, tablatures, lyrics

Guitar lessons | Add/correct | Request | Top 50 tabs Artists:  A B C D E F G H I J K L M N O P Q R S T U V W X Y Z 0-9

Las Luces De Esta Ciudad Bass Tabs – Division Minuscula

CD, Sheet music, Poster

Do you like Las Luces De Esta Ciudad? Share with your friends now
Bass TabsTabs
.        .!ed3R +~           .

Me pidieron ke sacara el bajo de esta rola, pero yo toco guitarra, asi ke disculpen los 
o muchos errores ke tenga el tab...

INTRO (empieza la guitarra y luego la voz)

VERSO 1:
"...prometer no hacerlo otra vez..."
G|---------------------------------------------------------------------|
D|---------------------------------------------------------------------|
A|------33------2-3-0-----33------2-3-0-----33------33-----------------|
E|-11111--555555-----11111--555555-----11111--555555---3x14(o algo asi)| X2


"...y escuchame muy   bien"
G|---------------------------------------------|
D|---------------------------------------------|
A|---------------------------------------------|
E|-111111111111111----333333333333333333-------|

CORO:
"No, no me digas que hacer pues, sabes? Probablemente lo haré al revés..."
G|--------------------------------------------------------------------------------|
D|--------------------------------------------------------------------------------|
A|----333------2-3-2-0~----333-------2-3-2-3-2----333-----------------------------|
E|-111---333333---------111---3333333----------111---333333333-5555555-33333333---|

SOLO DE GUITARRA Y VERSO 2:
"...perdona si no llego a estar en la cena..."
G|---------------------------------------------------------------------|
D|---------------------------------------------------------------------|
A|------33------2-3-0-----33------2-3-0-----33------33-----------------|
E|-11111--555555-----11111--555555-----11111--555555---3x14(o algo asi)|


"...y escuchame muy   bien"
G|---------------------------------------------|
D|---------------------------------------------|
A|---------------------------------------------|
E|-111111111111111----333333333333333333-------|

CORO:
"No, no me digas que hacer pues, sabes? Probablemente lo haré al revés..."
G|--------------------------------------------------------------------------------|
D|--------------------------------------------------------------------------------|
A|----333------2-3-2-0~----333-------2-3-2-3-2----333-----------------------------|
E|-111---333333---------111---3333333----------111---333333333-5555555-33333333---|

BRIDGE:
G|-----------------------------------|
D|-----------------------------------|
A|--------33333333-------------------|
E|-111111----------33333333----------|
Repite eso hasta que para y se escucha solo la guitarra y luego la voz

"...y al mismo tiempo te digo no puedo..."
G|------------------------------------------|
D|------------------------------------------|
A|--------------3~--------------------------|
E|-1~--3~--5~-----3~---------5~-----3~------|

CORO x2:
"No, no me digas que hacer pues, sabes? Probablemente lo haré al revés..."
G|--------------------------------------------------------------------------------|
D|--------------------------------------------------------------------------------|
A|----333------2-3-2-0~----333-------2-3-2-3-2----333-----------------------------|
E|-111---333333---------111---3333333----------111---333333333-5555555-33333333---|

Al final del segundo coro hace esto:
G|--------------------------------------|
D|--------------------------------------|
A|--------------------------------------|
E|----555555555--3333333333--1~---------|


Y segun yo asi es toda la rola, estoy seguro de que tiene varios errores (perdon Kevin), 
esque la sake con la guitarra, no tengo bajo, solo me pidieron la cancion y pues lo 
al menos jaja





Comments


Popular Division Minuscula tabs & chords
Cada Martes Chords
Control Chords
La Ultima Y Me Voy Chords
Control Intro Tabs
Cursi 2 Tabs
Cursi 3 Tabs
Hot Road Tabs
Televidente Tabs
Veneno Es Antidoto Sos 1 Tabs
Betty Boop Ukulele


Song lyrics



↑ Back to top | Tablatures and chords are parodies/interpretations of the original songs. You may use it for private study, scholarship, research or language learning purposes only
© 2014 AZChords.com Contact us | Privacy policy | DMCA | Add/correct tabs | Request tabs | Top 50 tabs