» » »

ExtrañAndo A Casa Tabs (ver.2)

Artists:  A B C D E F G H I J K L M N O P Q R S T U V W X Y Z # 

ExtrañAndo A Casa Tabs (ver.2)

Division Minuscula
Rating:
0/5 (0 votes)

Tabs too difficult? Try these video lessons and learn fast.
                Banda: Division Minuscula

Intro
Guitarra 1
e|-------------------------|
b|-------------------------|
g|-77777777777777777776666-|
d|-77777777777777777777777-|
a|-55555555555555555555555-|
E|-------------------------|x1


Guitarra 1
e|-----------------------------|
b|-----------------------------|
g|-----------------------------|
d|-7777777777777---------------|
a|-5555555555555-444444-555555-|
E|---------------222222-333333-|x4

Guitarra 2
e|-------------------|
b|-----5-7-5-7---5-7-|
g|-7-7---------7-----|
d|-------------------|
a|-------------------|
E|-------------------|x8

Verso 1
Guitarra 1
Guitarra 2

"Este cuarto sigue rechazandome..."
e|-----------------------------|
b|-----------------------------|
g|-----------------------------|
d|-7777777777777---------------|
a|-5555555555555-444444-555555-|
E|---------------222222-333333-|x2

Guitarra 1 "Creo que, no sobrevivire"
e|-----------------------------------------------------|-----------------------------------------------------------|
b|-----------------------------------------------------|-----------------------------------------------------------|
g|-----------------------------------------------------|------------------------------------6h7----6h7-------------|
d|-7-7777777777----------------7777--------------------|---------------------------77777-00-----00-----------------|
a|-5-5555555555--5-5555-7-7777-5555--------------------|---------------44444-55555-55555---------------44444-55555-|
E|---------------3-3333-5-5555-------------------------|---------------22222-33333---------------------22222-33333-|x1
pm   ..........    ....   ....                                                           ..    ..

Guitarra 2      "Creo que, no sobrevivire"
e|-----------------------------------------------------|-----------------------------------------------------------|
b|-----------------------------------------------------|-----------------------------------------------------------|
g|-7777777777777--12-12-12-12-12-12--14-14-14-14-14-14-|----7h9----7h9----------------------7h9----7h9-------------|
d|-xxxxxxxxxxxxx--x--x--x--x--x--x---x--x--x--x--x--x--|-00-----00-----------------77777-00-----00-----------------|
a|-5555555555555--10-10-10-10-10-10--12-12-12-12-12-12-|---------------44444-55555-55555---------------44444-55555-|
E|-----------------------------------------------------|---------------22222-33333---------------------22222-33333-|x1
pm                                                         ..     ..                     
 ..     ..

Guitarra 1
e|------------------------|
b|------------------------|
g|------------------------|
d|-7777777777-------------|
a|-5555555555-44444-55555-|
E|------------22222-33333-|x2

Guitarra 2
e|-----------------------------|
b|-----------------------------|
g|-6/77777777777-6h7-77-6h7-77-|
d|-x-xxxxxxxxxxx---------------|
a|-4/55555555555---------------|
E|-----------------------------|x2

Verso 2
Guitarra 1
e|----|
b|----|
g|-7~-|
d|-7~-|
a|-5~-|
E|----|

Guitarra 2
e|---------------------------------|
b|-----3-------3-------3-------3---|
g|---2---2---2---2---2---2---2---2-|
d|-0-------0-----------------------|
a|---------------------------------|
E|-----------------2-------3-------|x4

=*Coro*=
Guitarra 1 "Creo que no sobrevivire..."
e|-----------------------------|
b|-----------------------------|
g|-----------------------------|
d|-7-7777777777----------------|
a|-5-5555555555--5-5555-7-7777-|
E|---------------3-3333-5-5555-|x1
pm   ..........    ....   ....

Guitarra 2 "Creo que no sobrevivire..."
e|-----------------------------------------------------|
b|-----------------------------------------------------|
g|-7777777777777--12-12-12-12-12-12--14-14-14-14-14-14-|
d|-xxxxxxxxxxxxx--x--x--x--x--x--x---x--x--x--x--x--x--|
a|-5555555555555--10-10-10-10-10-10--12-12-12-12-12-12-|
E|-----------------------------------------------------|x1

Guitarra 1

"Me atevo a decir..."
e|-------------------------------------------------------------------------|
b|-------------------------------------------------------------------------|
g|-------------------------------------------------------------------------|
d|-777777777777777777------------------------------------------------------|
a|-555555555555555555-777777777777777777-555555555555555-44444444-55555555-|
E|--------------------555555555555555555-333333333333333-22222222-33333333-|x2

Guitarra 2
e|-------------------------------------------------------------------------|
b|-------------------------------------------------------------------------|
g|-------------------------------------------------------------------------|
d|-777777777777777777------------------------------------------------------|
a|-555555555555555555-777777777777777777-555555555555555-44444444-77777777-|
E|--------------------555555555555555555-333333333333333-22222222-55555555-|x2

Guitarra 1
e|------------------|    e|-----------------------------|
b|------------------|    b|-----------------------------|
g|-7~---------------|    g|-----------------------------|
d|-7~---------------|    d|-7777777777777---------------|
a|-5~-444444-555555-|    a|-5555555555555-444444-555555-|
E|----222222-333333-|x1  E|---------------222222-333333-|x3

Guitarra 2
e|-------------------|
b|-----5-7-5-7---5-7-|
g|-7-7---------7-----|
d|-------------------|
a|-------------------|
E|-------------------|x8

=*Coro*=

Outro
Guitarra 1
e|------|
b|------|
g|------|
d|-77-7-|
a|-55-5-|
E|------|x4
pm ..

Guitarra 2
e|---------|
b|---------|
g|-777-8-7-|
d|-xxx-x-x-|
a|-555-6-5-|
E|---------|x4

Guitarra 1
e|---------------------------------|    e|---------|
b|---------------------------------|    b|---------|
g|-777-888-777----777-888-777------|    g|-7-----7-|
d|-xxx-xxx-xxx-00-xxx-xxx-xxx-0000-|    d|-x-777-7-|
a|-555-666-555----555-666-555------|    a|-5-555-5-|
E|---------------------------------|x4  E|---------|x1
pm               ..             ....           ...

Guitarra 2
e|---------------------------------------|    e|---------|
b|-5h7-777777-5h7----5h7-777777-5h7------|    b|---------|
g|---------------------------------------|    g|-7-----7-|
d|----------------00----------------0000-|    d|-x-777-7-|
a|---------------------------------------|    a|-5-555-5-|
E|---------------------------------------|x4  E|---------|x1
pm                  ..                ....           ...
            
Tabs too difficult? Try these video lessons and learn fast.


comments powered by Disqus
↑ Back to top | Tablatures and chords are parodies/interpretations of the original songs. You may use it for private study, scholarship, research or language learning purposes only