>
 >
Cursi

Cursi Guitar Tabs

Division Minuscula - Cursi chords, tabs, tablatures, lyrics

Guitar lessons | Add/correct | Request | Top 50 tabs Artists:  A B C D E F G H I J K L M N O P Q R S T U V W X Y Z 0-9

Cursi Guitar Tabs – Division Minuscula

CD, Sheet music, Poster

Do you like Cursi? Share with your friends now
TabsTabs v2Tabs v3Tabs v4Tabs v5
INTRO

  Guitarra 1

   F5   A#5  F5   D5 C5 A#5  C5
e---------------------------------|
B---------------------------------|
G-------3~--------7~-5~-3~---5~---|
D--3~---3~---3~---7~-5~-3~---5~---|
A--3~---1~---3~---5~-3~-1~---3~---|
E--1~--------1~-------------------|

 Guitarra 2

e-----------------------     e-----------------------------------------------|
B-----------------------     B-----------------------------------------------|
G---------------10-10-9- x3  G--7-7-7-7--------------------------10-10-9-7~--|
D--10-10-10-8-8---------     D----------10-10-10-10-10-10-10-8-8-------------|
A-----------------------     A-----------------------------------------------|
E-----------------------     E-----------------------------------------------|


VERSO 1 (pongo las rayitas y los numeros porque los tiempos estan raros y asi los separo)
        (aqui una guitarra se queda cayada y entra en D5 las dos vueltas = que la otra lira)

  F5         A#5    F5         A#5    D5       C5       A#5
e--/--------/--------/--------/--------/--------/--------/--------/------------|
B--/--------/--------/--------/--------/--------/--------/--------/------------|
G--/--------/3333333-/--------/33333337/-7777775/-5555553/-3333333/3333333-----|    X2
D-3/-3333333/33333333/-3333333/33333337/-7777775/-5555553/-3333333/3333333-----|
A-3/-3333333/11111113/-3333333/11111115/-5555553/-3333331/-1111111/1111111-----|
E-1/-1111111/-------1/-1111111/--------/--------/--------/--------/------------|

  8 12345678 12345678 12345678 12345678 12345678 12345678 12345678 1234567

  Pre-CORO (Esto lo hacen las dos guitarras)

  D5       C5       A#5             C5
e--/--------/--------/--------/--------/
B--/--------/--------/--------/--------/
G-7/-7777775/-5555553/-3333333/3333355-/
D-7/-7777775/-5555553/-3333333/3333355-/
A-5/-5555553/-3333331/-1111111/1111133-/
E--/--------/--------/--------/--------/
  8 12345678 12345678 12345678 12345678


  CORO (Lo primero lo hacen igual las liras)
       (Luego desde\  / cambian)
                    \/

e--/--------/---     e----------/--------/--------/---|
B--/----5555/3~-     B----------/--------/--------/---|
G--/----5555/3~- x3  G--7-777775/--555553/--333333/3--| Pausa
D--/3~--3333/3~-     D--7-777775/--555553/--333333/3--|
A--/3~------/---     A--5-555553/--333331/--111111/1--|
E--/1~------/---   / E----------/--------/--------/---|
    12345678 1    /     12345678 12345678 12345678 1
                 =
                  \  e------------------------------------------------------------------------|
                   \ B------------------------------------------------------------------------|
     Guitarra 2      G-10---10--12----12---12-14-14-15-14-14-12-12-12-10---10---10--13/14--12-|
                     D--x----x---x-----x----x--x--x--x--x--x--x--x--x--x----x----x---x/-x---x-|
                     A--8----8--10----10---10-12-12-13-12-12-10-10-10--8----8----8--11/12--10-|
                     E------------------------------------------------------------------------|

                       puedas   daaaaaaaar    cueeenta deeee queeeee  yooooooooooo  uouo

pre-verso

e----------/--------/--------/-------|
B----------/--------/--------/-------|
G----------/3~------/--------/3~-----|
D--3~------/3~-----3/--------/3~-----|
A--3~------/1~-----3/--------/1~-----|
E--1~------/-------1/--------/-------|
   12345678 12345678 12345678 1234567

   VERSO 2

  Guitarra 1

e---/--------/--------/--------/--------/--------/--------/--------/--------|
B---/--------/--------/--------/--------/--------/--------/--------/--------|
G---/--------/3335555-/--------/33355557/-7777775/-5555553/-3333333/3333333-|
D--3/--333333/33355553/--333333/33355557/-7777775/-5555553/-3333333/3333333-|
A--3/--333333/11133333/--333333/11133335/-5555553/-3333331/-1111111/1111111-|
E--1/--111111/-------1/--111111/--------/--------/--------/--------/--------|
 P.M.  ...... ...        ...... ...                                         \
                                                                             \  Van
   8 12345678 12345678 12345678 12345678 12345678 12345678 12345678 1234567=  \ al     x2
                                                                              / mismo
  Guitarra 2                                                                 /  tiempo
e---/--------/--------/--------/--------/--------/--------/--------/--------| /
B---/--------/--------/--------/--------/--------/--------/--------/--------|
G---/--33----/3335555-/--33----/33355557/-7777775/-5555553/-3333333/3333333-|
D--3/----33--/---55553/----33--/---55557/-7777775/-5555553/-3333333/3333333-|
A--3/--------/---33333/--------/---33335/-5555553/-3333331/-1111111/1111111-|
E--1/--------/-------1/--------/--------/--------/--------/--------/--------|
PM.    ....   ...        ....   ...

  Luego va el pre-CORO

  Luego el CORO

  Luego el INTRO

  SOLO (una guitarra va como el verso 1 (una vez) y luego lo ultimo del CORO
       (la otra 'pues lleva el solo')

e---------------------------------------------------------------------------------------|
B---------------------------------------------------------------------------------------|
G---------10-9--10--9-------12-10--9--10--10--10-10-10-10-10-10-10--10-10-10-12-10-9----|
D--/10~--------------/10~-----------------10--10-10-10-10-10-12-10--10-10-10---------12-|
A---------------------------------------------------------------------------------------|
E---------------------------------------------------------------------------------------|

e----------------------------------------------------------------------------|
B----------------------------------------------------------------------------|
G----10-9---------10--10-10-10-10-10-10-10--10-10-10-10-10-------------------|
D--10------12-10--10--10-10-10-10-10-12-10--10-10-10-10-10--8--8-8-8-8-8-8-8-|
A----------------------------------------------------------------------------|
E----------------------------------------------------------------------------|

e---------------------|
B---------------------|
G--------------5/10~--|
D--8-7-5---5-7--------|
A--------8------------|
E---------------------|

Luego el CORO 2 veces

Termina en

   F5
e-----
B-----
G-----          y ya fin
D--3--
A--3--
E--1--

Esta rola esta curada, a poco lo que dice no nos pasa a todos los chavos,
a mi no me gusta cursilear pero me se una que otra cosa, de todo un poco, no?
Dedicada a sonia que la amo y adoro etc. Que cursi no? Atte   johnny





Comments


Popular Division Minuscula tabs & chords
La Ultima Y Me Voy Chords
Prestame Tu Piel Chords
Songnare Chords
Cada Martes Tabs
Division Minuscula - Cursi Tabs
Negligencia Tabs
Sismo Tabs
Soundtrack Tabs
Veneno Es Antidoto Sos 1 Tabs
Control Ukulele


Song lyrics



↑ Back to top | Tablatures and chords are parodies/interpretations of the original songs. You may use it for private study, scholarship, research or language learning purposes only
© 2014 AZChords.com Contact us | Privacy policy | DMCA | Add/correct tabs | Request tabs | Top 50 tabs