>
 >
Control

Control Bass Tabs

Division Minuscula - Control chords, tabs, tablatures, lyrics

Guitar lessons | Add/correct | Request | Top 50 tabs Artists:  A B C D E F G H I J K L M N O P Q R S T U V W X Y Z 0-9

Control Bass Tabs – Division Minuscula

CD, Sheet music, Poster

Do you like Control? Share with your friends now
Bass TabsChordsTabsUkulele
INTRO

G----------------------------------------------------------I
D----------------------------------------------------------I
A-------------------------------------66666666-------------I
E-----666666666666666---X3---------------------2222222-----I


Riff 1
G--------------------------------I
D--------------------------------I
A-------8/------4----------------I
E-----6-------6-----6----2---2---I

G------------------------------------------I
D------------------------------------------I
A--------------8/-------4----------4-4-----I
E---2—4-4--6--------6-----6—2-2------------I
Voy a tomar el control de esta misión otra vez
“¡Atención tripulación, tomen sus puestos!”


G---------------------------------------I
D---------------------------------------I
A---------8/----------4-----------------I
E-----6------------6------6----2---2----I

G------------------------------------------I
D------------------------------------------I
A---------------8/-------4-----------------I
E-----2—4-4--6--------6-----6—2-2----1-1—--I
No he regresado hasta aquí con sueños de salvación,
No quiero salvarme a mi, creo que a ti menos.

G-------------------------------------------------------------I
D-------------------------------------------------------------I
A-------------------------------------------------------------I
E----22222222-------44444444----------------------------------I
                 “A ver quiero escuchar esas voces de ultratumba…”


G---------------------------------------------------------------I
D----------------------------------------8/11------8/11---------I
A---------8/----------4--------------9-9--------8-8-------------I
E-----6 -----------6------6-------------------------------------I
Oh oh oo oh
G------------------------------------------------I
D-------------------------------------11/--------I
A---------8/----------4--------------------------I
E-----6 -----------6------6-----2----------------I
oh oh oo ooh

 (silencio)

Riff1
Todos quieren preguntar, pero nadie quiere saber,
Es tan difícil pensar en estos tiempos

G------------------------------------------------I
D------------------------------------------------I
A---------8/----------4------------3/4-------3/4-I
E-----6-----------6------6----2-2-------3-3------I

G--------------------------------------------I
D--------------------------------------------I
A-------------------8/-------4---------------I
E-------2—4-4--6--------6-----6—2-2----1-1—--I
Donde tu televisión es la palabra de Dios.
Siento que voy a morir en el intento…


G-----------------------------------------I
D-----------------------------------------I
A------------------4-4--------------------I
E------6-6-6-6-6-6-------2-2-2-2-4-44-----I

G---------------------------------------I
D---------------------------------------I
A--------------4-4---------6-6-6--------I
E---6-6-6-6-------2-2-2-----------------I
  No hay más detrás de lo que puedes ver,
No hay más detrás de lo que puedes oír,

A------------------4-4-----------------I
E------6-6-6-6-6-6-------2-2-2-2-4-44--I

A-----------------------------------------I
E------1-1-1-1-1—2-2-2-2-2—4-4-4-4—4—6----I
  Y aquí tu tan dispuesto a morir
 Todo lo que crees esta mal,  esta mal, esta mal.


G---------------------------------------------------I-----
D---------------------------------------------------I-----
A---------------------------------------------------I---6-
E--------6-6-6-6-6-6-6-4-4-4-4--2-2-2-2-2-0-0-0—x6--I-----

Voy a tomar el control de esta misión otra ves….
-Voy a tomar el control de esta misión otra ves--
Voy a tomar el control de esta misión otra ves….
-Voy a tomar el control, voy a tomar el control!

A-------------------------------------------------I
E--------6-6-6-6-6-6-6-4-4-4-4--2-2-2-2-2-0-0-0—--I
Aquí en nuestra habitación, aquí no hay cuadros de honor


A----------------------------------------6-6-I
E--------6-6-6-6-6-6-6-4-4-4-4--2-2-2-2-2-—--I
Tan solo sueños de ayer y realidades de hoy.

A-------------------------------------------------I
E--------6-6-6-6-6-6-6-4-4-4-4--2-2-2-2-2-0-0-0—--I
Y precisamente hoy tan pronto va a anochecer,

A------------------------------------------------------------------I
E--------6-6-6-6-6-6-6-4-4-4-4--2-2-2-2-2-1-1-2-2-2-2-2—4-4-4-4-4—-I
Apenas caiga ese sol saldré a sembrar el terror…    UHUHU

Corox2
Silencio

G----------------------------------------------------I
D----------------------------------------------------I
A----------------------13-13-13-13-13-13-13--11------I
E-----666666666666666--------------------------13--66I
Oh oh oo ooh                     oh oh oohoohooh             x2

A--------------------------------------------------------I
E-----66666-4-6-4-2-2-2-2-2-2----------------------------I
Oh oh oo ooh

A---------------------------------------------------I
E-----66666-4-6-4-2-2-2-0-0-0-----------------------I
oh oh oohoohooh

A----------------------3/4-----3/4------------------I
E-----66666-4-6-4-2-2-2----4-4----------------------I
Oh oh oo ooh

A------------------------------I
E---1-1-1-1-2-2-2-4-4-4--------I
oh oh oohoohooh


corox2


espero ke les guste!!
suertee
y kalifikenme bien porke es la primera ke subo





Comments


Popular Division Minuscula tabs & chords
Ano Nuevo Chords
La Ultima Y Me Voy Chords
Cansado De Pedir Perdon Tabs
Division Minuscula - Cursi Tabs
Hot Road Tabs
Maquillaje Tabs
Muriendo En Un Simulacro Tabs
Soundtrack Tabs
Veneno Es Antidoto Sos Tabs
Ano Nuevo Ukulele


Song lyrics



↑ Back to top | Tablatures and chords are parodies/interpretations of the original songs. You may use it for private study, scholarship, research or language learning purposes only
© 2014 AZChords.com Contact us | Privacy policy | DMCA | Add/correct tabs | Request tabs | Top 50 tabs