» » »

Televidente Tabs (ver.1)

Artists:  A B C D E F G H I J K L M N O P Q R S T U V W X Y Z # 

Televidente Tabs (ver.1)

Division
Rating:
0/5 (0 votes)

Hard to play? Try these video lessons and learn fast.
                Intro
D#   F   C#  (X2)

|--------11------------||--------11------------||-------------------------|
|--9-8-9-----9-8-9-8---||--9-8-9-----9-8-9--11-||-------------------------|
|----------------------||----------------------||-------------------------|
|----------------------||----------------------||-8-8-8-8-8-8-8-8-8-8--10-|
|----------------------||----------------------||-6-6-6-6-6-6-6-6-6-6--8--|
|----------------------||----------------------||-------------------------|

Estrofa:
G#         F     C#  G#           F    C# 
Prendo el televisor junto con mi atención
G#             F   C#             D#           G# 
Pues son las siete ya mi programa ya va a comenzar
G#             F 	C#    G#		     F     C# 
Mi corazon siento que estalla cuando aparece ella en la pantalla
G#		      F    C#		     D#	       G#	
Subo el volumen para escuchar su voz,para escuchar su voz

CORO:
G#    D#		   F     C#
Por favor sin interrupción,por favor sin continuación
G#     D#	   C#               C#-D#	
Odio tener que esperar hasta mañana

ESTROFA 2:
G#		    F    C#
La emocion de tener emociones van
G#		    F    C#	
Pero los son pocos cambiaré can*l
G#		F   C#
Y soporto malos y galanes
  C#		     D#	
Pero porque tantos comerciales

CORO:
G#    D#		   F     C#
Por favor sin interrupción,por favor sin continuación
G#     D#	   C#               C#-D#	
Odio tener que esperar hasta mañana
G# 	    D#
La intriga no dejará dormir
F	C# 
Mi vida ya no puede seguir
G#	D#	    C#	
Dependiendo de una simple y vaga historia

INTRO OTRA VEZ 
SOLO
|----------------------------||------------------------|
|----------------------------||------------------------|
|----------------------------||------------------------|  X2
|-----------13---------------||----------13------------|
|-11-10-11-----11-10-11-10---||-11-10-11----11-10-11-13|
|----------------------------||------------------------|

|-------11---------------| |---------11------------------|
|-9-8-9----9-8-9-8-------| |-9-9-8-9----9-8-9-11-13-11-9-|
|------------------8-6-8-| |-----------------------------| X2
|------------------------| |-----------------------------|
|------------------------| |-----------------------------|
|------------------------| |-----------------------------|

D# 	  F#     C#          D#
No me importa el rating a mi
D#	   F     C#
No me importa el rating
D#	   F#     C#
No me importa nada
D#      F   C#       D#
Yo no pido nada... Nada solo:

CORO

G#    D#		   F     C#
Por favor sin interrupción,por favor sin continuación
G#     D#	   C#               C#-D#	
Odio tener que esperar hasta mañana
G# 	    D#
La intriga no dejará dormir
F	C# 
Mi vida ya no puede seguir
G#	D#	    C#	                  C#-D#
Dependiendo de una simple y vaga historia
  C#
Simple y vaga historia
G#  G#/G		    G#
Esta historia tiene que terminar
            
Hard to play? Try these video lessons and learn fast. | Correct




comments powered by Disqus
↑ Back to top | Tablatures and chords are parodies/interpretations of the original songs. You may use it for private study, scholarship, research or language learning purposes only