>
 >
Simple

Simple Guitar Tabs

Division - Simple chords, tabs, tablatures, lyrics

Guitar lessons | Add/correct | Request | Top 50 tabs Artists:  A B C D E F G H I J K L M N O P Q R S T U V W X Y Z 0-9

Simple Guitar Tabs – Division

CD, Sheet music, Poster

Do you like Simple? Share with your friends now
Tabs
Guitarra1                                                                                                                      guitarra2
e|---------------------------------------------------------------------/---------------------------------------------------
B|---------------------------------------------------------------------/-------------------------------------------------
G|-------5-5-5-------5-5-5---5---------5-5-5-------5-5-5---5-/-------------------------------------------------
D|-3-3-3-------3-3-3-------3---3-2-2-2-------2-2-2-------2---/10 10 --10-----10—10-10-10-10----------
A|---------------------------------------------------------------------/-8----8—8-----8-----7---7---7---7 ------------
E|---------------------------------------------------------------------/---------------------------------------------
                                                                                                                                      Guitarra2
e|----------------------------------------------------------------/-------------------------------------------
B|---------------------------------------------------------------/-------------------------------------------
G|---------------------------------------------------------------/------------------------------------------
D|-------7-7-7-------7-7-7---7---------5-5-5-------5-5-5/-777-- 777---7--555----555---------
A|-5-5-5-------5-5-5-------5---5-3-3-3-------3-3-3-----/555----555--5---333----333---------
E|--------------------------------------------------------------/---------------------------------------------
Guitarra1                                                                                                         guitarra2
e|----------------------------------------------------------------------/--------------------------------------------
B|---------------------------------------------------------------------/----------------------------------------------
G|-------5-5-5-------5-5-5---5---------5-5-5-------5-5-5---5-/----------------------------------------------
D|-3-3-3-------3-3-3-------3---3-2-2-2-------2-2-2-------2--/10-10-10-10--10-10-10-10-10-10---
A|-------------------------------------------------------------------/8-----8----8—8---8—7-7—7---7---7---
E|------------------------------------------------------------------/-------------------------------------------------
Guitarra1                                                                                                            guitarra2
e|-----------------------------------------------------------------/---------------------------------------------------
B|----------------------------------------------------------------/----------------------------------------------------
G|---------------------------------------------------------------/----------------------------------------------------
D|-------7-7-7-------7-7-7---7---------5-5-5-------5-5-5/777--777---77-----777---777---77-777----
A|-5-5-5-------5-5-5-------5---5-3-3-3-------3-3-3----/-555--555--55------333---333—33-333------
E|------------------------------------------------------------/---------------------------------------------------------

PARTE1.-
Guitarra 1

e|---------------------------------------------------------------
B|---------------------------------------------------------------
G|-5-3-2----5-3-2---5-3-2------------(Se repite 2 veces)---------
D|-3-3-3----2-2-2---0-0-0---5-5-3--------------------------------
A|--------------------------0-3-3--------------------------------
E|---------------------------------------------------------------

Guitarra 2
     
    F          E          D         C
e|---------------------------------------------------------------
B|---------------------------------------------------------------
G|---------------------------------------------------------------
D|--10---------10---------7---------5-----( 2 Veces )------------
A|--8----------7----------5---------3----------------------------
E|---------------------------------------------------------------

Antes de la voz

e|---------------------------------------------------------------
B|---------------------------------------------------------------
G|-------5-5-5-5-------5-5-5-5-----------------------------------
D|-3-3-3---------3-3-3---------3---------------------------------
A|---------------------------------------------------------------
E|---------------------------------------------------------------


 F                E                D            C      
Intente dormir y no soñar y todo fue al reves, soñe despierto
 F                     E                          D
tal vez fue por que estabas aqui en mi almohada  junto a mi
  C               F  
ahora lo entiendo, le temo a la obscuridad pero tu estabas aqui
 F                      E                       D          C
tomando el tiempo para escuchar quejarme de lo mal que me va
 F                       E                          D            C
tomando el tiempo para desglosarme siempre un poco mas, un poco mas ...
 F                          E                   D    C
Nada más, simplemente no quiero saber si esto durará
 F                          E                 D        C
Gracias, simplemente por estar aquí sentada junto a mí
 F8             G8       A8     G8                  F
Mañana un día nuevo será y espero que sigas aquí...

---Aqui se toca la PARTE1----

 F              E                 D           C
Intente reir y no llorar y todo fue al reves...
 F              E                 D            C
Intenté huir y no llorar y todo fué al revés...
 F                          E                   D    C
Nada más, simplemente no quiero saber si esto durará
 F                          E                 D        C
Gracias, simplemente por estar aquí sentada junto a mí
 F8             G8     A8   G8                    F
Mañana un día nuevo será y tal ves yo no esté aquí...

--- Termina con la PARTE1 ---



Los acordes que tocan en esta cancion son :

     F       E      D     C     G8      A8
e|---------------------------------------------------------------
B|---------------------------------------------------------------
G|---10-----10------7-----5-----12------14-----------------------
D|---10-----10------7-----5-----x-------x------------------------
A|---8------7-------5-----3-----10------12-----------------------
E|--------------------------------------------------------



Para que esta rola se oiga chido solo renecesita un pedal nada mas alguna





Comments


Popular Division tabs & chords
Betty Boop Tabs
Betty Boop 1 Tabs
Cursi Tabs
ExtrañAndo Casa Tabs
Poliuretano Tabs
Radical Tabs
Televidente Tabs
Todo Tabs


Song lyrics



↑ Back to top | Tablatures and chords are parodies/interpretations of the original songs. You may use it for private study, scholarship, research or language learning purposes only
© 2014 AZChords.com Contact us | Privacy policy | DMCA | Add/correct tabs | Request tabs | Top 50 tabs