>
 >
Radical

Radical Guitar Tabs

Division - Radical chords, tabs, tablatures, lyrics

Guitar lessons | Add/correct | Request | Top 50 tabs Artists:  A B C D E F G H I J K L M N O P Q R S T U V W X Y Z 0-9

Radical Guitar Tabs – Division

CD, Sheet music, Poster

Do you like Radical? Share with your friends now
Tabs
intro (2a guitarra) x2

e|--------------------------------------------------------------------|
B|--------------------------------------------------------------------|
G|-----------------------------5-----------5--------------------------|
D|----x--x--5---x--x-5---x--x--5-----x--x--5--x--x--2--x--x-2---------|
A|----x--x--5---x--x-5---x--x--3-----x--x--3--x--x--2--x--x-2---------|
E|----x--x--3---x--x-3---x--x--------x--x-----x--x--0--x--x-0---------|


e|--------------------------------------------------------------------|
B|--------------------------------------------------------------------|
G|---------5--------5--------------------------------5-----5----------|
D|---x--x--5--x--x--5----x--x---5--x--x--5----x--x---5--x--5----------|
A|---x--x--3--x--x--3----x--x---5--x--x--5----x--x---3--x--3----------|
E|---x--x-----x--x-------x--x---3--x--x--3----x--x------x-------------|



e|--------------------------------------------------------------------|
B|--------------------------------------------------------------------|
G|----------9--------9---------7-----7--------------------------------|
D|---x--x---9--x--x--9---x--x--7--x--7--------------------------------|
A|---x--x---7--x--x--7---x--x--5--x--5--------------------------------|
E|---x--x------x--x------x--x-----x-----------------------------------|

intro 2 (1ra guitarra)x 8

e|---------------------------7----------------------------------------|
B|-----8---8---8---8---8---8---8--------------------------------------|
G|---7---7---7---7---7---7--------------------------------------------|
D|--------------------------------------------------------------------|
A|--------------------------------------------------------------------|
E|--------------------------------------------------------------------|

2 guitarras al mismo tiempo x2
e|--------------------------------------------------------------------|
B|--x-x-8-8--x-x-8-8-x-x-8--------------------------------------------|
G|--x-x-7-7--x-x-7-7-x-x-7--------------------------------------------|
D|--------------------------------------------------------------------|
A|--------------------------------------------------------------------|
E|--------------------------------------------------------------------|

verso 2 guitarras x2
e|--------------------------------------------------------------------|
B|--------------------------------------------------------------------|
G|--------------------------------------------------------------------|
D|--x-x-5-x-x-5--x-x-5--x-x-5--x--x--2-x--x--2--x-x-2-x-x-2-----------|
A|--x-x-5-x-x-5--x-x-5--x-x-5--x--x--2-x--x--2--x-x-2-x-x-2-----------|
E|--x-x-3-x-x-3--x-x-3--x-x-3--x--x--0-x--x--0--x-x-0-x-x-0-----------|



e|--------------------------------------------------------------------|
B|--------------------------------------------------------------------|
G|------5-----5-----5-----5------9-----9-----5-----5------------------|
D|--x-x-5-x-x-5-x-x-5-x-x-5--x-x-9-x-x-9-x-x-5-x-x-5------------------|
A|--x-x-3-x-x-3-x-x-3-x-x-3--x-x-7-x-x-7-x-x-7-x-x-7------------------|
E|--x-x---x-x---x-x---x-x----x-x---x-x---x-x---x-x--------------------|

2 guitarras al mismo tiempo x2
e|--------------------------------------------------------------------|
B|--x-x-8-8--x-x-8-8-x-x-8--------------------------------------------|
G|--x-x-7-7--x-x-7-7-x-x-7--------------------------------------------|
D|--------------------------------------------------------------------|
A|--------------------------------------------------------------------|
E|--------------------------------------------------------------------|

verso x2

coro x2
e|--------------------------------------------------------------------|
B|--------------------------------------------------------------------|
G|-5-5-5-5-5------------------------------------5-5-5-5-5-------------|
D|-5-5-5-5-5--5-5-5-5-5---2-2-2-2-2--5-5-5-5-5--5-5-5-5-5-5-5-5-5-5---|
A|-3-3-3-3-3--5-5-5-5-5---2-2-2-2-2--5-5-5-5-5--3-3-3-3-3-5-5-5-5-5---|
E|------------3-3-3-3-3---0-0-0-0-0--3-3-3-3-3------------3-3-3-3-3---|

e|--------------------------------------------------------------------|
B|--------------------------------------------------------------------|
G|--7-7-7-7-7---------------------------------------------------------|
D|--7-7-7-7-7------en la segunda al terminar es 10-10-10-10-10-10-8---|
A|--5-5-5-5-5---------------------------------------------------------|
E|--------------------------------------------------------------------|

intro - intro 2  x2

2 guitarras al mismo tiempo x2
e|--------------------------------------------------------------------|
B|--x-x-8-8--x-x-8-8-x-x-8--------------------------------------------|
G|--x-x-7-7--x-x-7-7-x-x-7--------------------------------------------|
D|--------------------------------------------------------------------|
A|--------------------------------------------------------------------|
E|--------------------------------------------------------------------|

verso x2

coro x2
e|--------------------------------------------------------------------|
B|--------------------------------------------------------------------|
G|--------------------------------------------------------------------|
D|--5-----------------------------------------------------------------|
A|--5-----------------------------------------------------------------|
E|--3-----------------------------------------------------------------|


(solo de bajo)

2 veces entre el solo del bajo
e|--------------------------------------------------------------------|
B|---------8---------8------------------------------------------------|
G|------7----------7--------------------------------------------------|
D|----7----------7----------------------------------------------------|
A|--------------------------------------------------------------------|
E|--------------------------------------------------------------------|

solo (dos guitarras)
e|--------------------------------------------------------------------|
B|--------------------------------------------------------------------|
G|---7---7--7--7----9--9--9-9----7--7--7--7----5---5--5--5------------|
D|----7---7---7--7----9--9--9-9----7--7--7--7----5---5--5--5----------|
A|--------------------------------------------------------------------|
E|--------------------------------------------------------------------|

e|--------------------------------------------------------------------|
B|--------------------------------------------------------------------|
G|---7---7--7--7----9--9--9-9-----------------------------------------|
D|----7---7---7--7----9--9--9-9----7---7---7---7---7---7--7--7--7-----|
A|-----------------------------------10---10--10--10--10--10--10--10--|
E|--------------------------------------------------------------------|

e|--------------------------------------------------------------------|
B|--------------------------------------------------------------------|
G|---7---7--7--7----9--9--9-9----7--7--7--7----5---5--5--5------------|
D|----7---7---7--7----9--9--9-9----7--7--7--7----5---5--5--5----------|
A|--------------------------------------------------------------------|
E|--------------------------------------------------------------------|

e|--------------------------------------------------------------------|
B|--------------------------------------------------------------------|
G|---7---7--7--7----9--9--9-9------5-5-5-5-5-5-5-5--------------------|
D|----7---7---7--7----9--9--9-9----5-5-5-5-5-5-5-5--------------------|
A|--------------------------------------------------------------------|
E|--------------------------------------------------------------------|

coro x4

termina en

e|--------------------------------------------------------------------|
B|--------------------------------------------------------------------|
G|--------------------------------------------------------------------|
D|--5-----------------------------------------------------------------|
A|--5-----------------------------------------------------------------|
E|--3-----------------------------------------------------------------|





Comments


Popular Division tabs & chords
Betty Boop Tabs
Betty Boop 1 Tabs
Cursi Tabs
ExtrañAndo Casa Tabs
Poliuretano Tabs
Simple Tabs
Televidente Tabs
Todo Tabs


Song lyrics



↑ Back to top | Tablatures and chords are parodies/interpretations of the original songs. You may use it for private study, scholarship, research or language learning purposes only
© 2014 AZChords.com Contact us | Privacy policy | DMCA | Add/correct tabs | Request tabs | Top 50 tabs