>
 >
Cursi

Cursi Guitar Tabs

Division - Cursi chords, tabs, tablatures, lyrics

Guitar lessons | Add/correct | Request | Top 50 tabs Artists:  A B C D E F G H I J K L M N O P Q R S T U V W X Y Z 0-9

Cursi Guitar Tabs – Division

CD, Sheet music, Poster

Do you like Cursi? Share with your friends now
Tabs
INTRO:*TOCADO POR LA GUITARRA 1*
|----------------------------------------------------------------------||
|----------------------------------------------------------------------||
|-------99-8--------99-8--------99-8-------------------------99-8------||
|999-77------999-77------999-77------9/12-12-12/999999999-77-----9/12--||
|----------------------------------------------------------------------||
|----------------------------------------------------------------------||

INTRO:*TOCADO POR LA GUITARRA 2*
|----------------------||
|----------------------||
|----------7--5-----5--||
|-3--8--3--7--5--8--5--||
|-3--8--3--5--3--8--3--||
|-1--6--1--------6-----||


VERSO 1:
F                 A#          F
Acaso es mucho pedirte una razón
        A#             D          C         A#
cuando sabes que eres tú la que tiene mi corazón
|---------||
|---------||
|---------||
|---------||   *ESTE ARREGLO ES HECHO POR LA GUITARRA 1
|-7--3----||    ESCUCHEN BIEN Y SÍ L0 LLEVA
|------1--||
F                      A#         F
Explícame por que no puedo ni hablar
      A#           D       C                   A#     D
y me pones a temblar cada vez que estas cerca de mi
        C         A#             C                F   C
no lo puedo resistir, mira lo que me haces escribir.


CORO:
A#             F  C
Y no se que decir
A#             F  C
Y no se que hacer
A#             D        
Para que te puedas
|----------------------||
|----------------------||
|--0-2-3-3/5/3---1/2-0-||
|-3-----------3-0------||   *ESTE ARREGLO ES HECHO POR LA GUITARRA 1
|----------------------||    EN LO QUE LA 2 ACABA LO SIGUIENTE.
|----------------------||
      C            A#  C  (PAUSA)
dar cuenta de que yo ouo
                F   A#   F  A#
Estoy frente a ti.



VERSO 2:*LA GUITARRA 1 TOCA LOS TABS QUE ESTÁN DEBAJO DE ESTE 
PEDAZO DE LA GUITARRA 2 EN PAL MUTE
F.............................A# A#   F
Acaso es mucho escribirte esta canción
...................A# A#  D           C        A#  F
pues para mí no es tan común estar en esta situación
F..........................A# A#   F
Si tan solo no fueras tan especial
.............A# A#  D           C        A#       D
y yo no tan informal tal vez me acercaría a ti
|----------------------||
|----------------------||
|--7-------------------||
|--7-------------------||   *ESTE ARREGLO ES HECHO POR LA GUITARRA 1
|--5/7/8---------------||    EMPIEZA CUANDO DICE 'YO ME SIENTO..'
|----------------------||
        C         A#  
yo me siento tan cursi
           C                F   C  
mira lo que me haces escribir.

|------------------------------------||
|------------------------------------||
|-10-10-----------10-10-99-----------||
|-------10-10--88----------10-10-888-||
|------------------------------------||
|------------------------------------||
.....................................
|-----------------------------------------||
|-----------------------------------------||
|-10-10-----------10-10-99----------------||
|-------10-10--88----------10-10-10-10/12-||
|-----------------------------------------||
|-----------------------------------------||
..........................................


CORO:
A#             F  C
Y no se que decir
A#             F  C
Y no se que hacer
A#             D        
Para que te puedas
|----------------------||
|----------------------||
|--0-2-3-3/5/3---1/2-0-||
|-3-----------3-0------||   *ESTE ARREGLO ES HECHO POR LA GUITARRA 1
|----------------------||    EN LO QUE LA 2 ACABA LO SIGUIENTE.
|----------------------||
      C            A#  C  (PAUSA)
dar cuenta de que yo ouo
                F   A#   F  A#
Estoy frente a ti.

INTRO:*TOCADO POR LA GUITARRA 1*
|----------------------------------------------------------------------||
|----------------------------------------------------------------------||
|-------99-8--------99-8--------99-8-------------------------99-8------||
|999-77------999-77------999-77------9/12-12-12/999999999-77-----9/12--||
|----------------------------------------------------------------------||
|----------------------------------------------------------------------||

INTRO:*TOCADO POR LA GUITARRA 2*
|----------------------||
|----------------------||
|----------7--5-----5--||
|-3--8--3--7--5--8--5--||
|-3--8--3--5--3--8--3--||
|-1--6--1--------6-----||

SOLO:
----10-9-10-9----12-10-9-10-------------------------------12-10-9---||
-10-----------10------------10-10-10-10-10-12-10-10-10-10---------12||


----10-9-------------------------------------12-10-9-7-7-7-7-7-7-7-8-7
-10------12-10-10-10-10-10-10-12-10-10-10-10--------------------------

--------------||
--------------||
--------7-----||
10-8-10-------||
--------------||
--------------||
GUITARRA 2:
|---------------------------------||
|---------------------------------||
|-------------7--5-----7--5-----5-||
|-3--8--3--8--7--5--8--7--5--8--5-||
|-3--8--3--8--5--3--8--5--3--8--3-||
|-1--6--1--6--------6--------6----||

CORO:
A#             F  C
Y no se que decir
A#             F  C
Y no se que hacer
A#             D        
Para que te puedas
|----------------------||
|----------------------||
|--0-2-3-3/5/3---1/2-0-||
|-3-----------3-0------||   *ESTE ARREGLO ES HECHO POR LA GUITARRA 1
|----------------------||    EN LO QUE LA 2 ACABA LO SIGUIENTE.
|----------------------||
      C            A#  C  (PAUSA)  GUITARRA1: CCCCCCCC
dar cuenta de que yo ouo
A#             F  C
Y no se que decir
A#             F  C
Y no se que hacer
A#             D        
Para que te puedas
|----------------------||
|----------------------||
|--0-2-3-3/5/3---1/2-0-||
|-3-----------3-0------||   *ESTE ARREGLO ES HECHO POR LA GUITARRA 1
|----------------------||    EN LO QUE LA 2 ACABA LO SIGUIENTE.
|----------------------||
      C            A#  C  (PAUSA)  GUITARRA1: CCCCCCCC
dar cuenta de que yo ouo
                F  
Estoy frente a ti.  


Algo que no entiendan una sugerencia mandenme  un mensaje o agréguenme mi correo es 





Comments


Popular Division tabs & chords
Betty Boop Tabs
Betty Boop 1 Tabs
ExtrañAndo Casa Tabs
Poliuretano Tabs
Radical Tabs
Simple Tabs
Televidente Tabs
Todo Tabs


Song lyrics



↑ Back to top | Tablatures and chords are parodies/interpretations of the original songs. You may use it for private study, scholarship, research or language learning purposes only
© 2014 AZChords.com Contact us | Privacy policy | DMCA | Add/correct tabs | Request tabs | Top 50 tabs