>
 >
Underworld

Underworld Guitar Tabs

Divinyls - Underworld chords, tabs, tablatures, lyrics

Guitar lessons | Add/correct | Request | Top 50 tabs Artists:  A B C D E F G H I J K L M N O P Q R S T U V W X Y Z 0-9

Underworld Guitar Tabs – Divinyls

CD, Sheet music, Poster

Do you like Underworld? Share with your friends now
Tabs
Tuning: Drop 1/2 Step Eb,Ab,Db,Gb,Bb,eb 

Everything minus the solo.
There are 3 guitars that are played in this song and I have put the 3rd one in 
when it is being played.  
Enjoy


Intro

Main Riff

Guitar 1 
e|---------------------------------------------------------------------|
B|---------------------------------------------------------------------|
G|---------------------------------------------------7-----------------|
D|------9---7-9---9-------------7---------9---7-9-----------------7----|
A|--------------------7--7--9----------------------------7--7--9-------|
E|--7-------------------------------7----------------------------------|

Guitar 2
e|---------------------------------------------------------------------|
B|---------------------------------------------------------------------|
G|---------------------------------------------------------------------|
D|---------------------------------------------------------------------|
A|-9-----------9--------------------9-----------9----------------------|
E|-7-----------7--------------------7-----------7----------------------|




Guitar 1 
e|---------------------------------------------------------------------|
B|---------------------------------------------------------------------|
G|----------------7-----------------------------------7----------------|
D|------9---7-9-----------------7---------9---7-9-----------------7----|
A|--------------------7--7--9----------------------------7--7--9-------|
E|--7-------------------------------7----------------------------------|

Guitar 2
e|---------------------------------------------------------------------|
B|---------------------------------------------------------------------|
G|---------------------------------------------------------------------|
D|---------------------------------------------------------------------|
A|-9-----------9--------------------9-----------9----------------------|
E|-7-----------7--------------------7-----------7----------------------|



Verse 1 0:09
Guitar 1 
e|---------------------------------------------------------------------|
B|---------------------------------------------------------------------|
G|----------------7----------------------------------7-----------------|
D|------9---7-9-----------------7---------9---7-9-----------------7----|
A|--------------------7--7--9----------------------------7--7--9-------|
E|--7-------------------------------7----------------------------------|

Guitar 2
e|---------------------------------------------------------------------|
B|---------------------------------------------------------------------|
G|---------------------------------------------------------------------|
D|---------------------------------------------------------------------|
A|-9-----------9--------------------9-----------9----------------------|
E|-7-----------7--------------------7-----------7----------------------|
       You think you're winning but you'll lose the fight



Guitar 1 
e|---------------------------------------------------------------------|
B|---------------------------------------------------------------------|
G|----------------7-----------------------------------7----------------|
D|------9---7-9-----------------7---------9---7-9-----------------7----|
A|--------------------7--7--9----------------------------7--7--9-------|
E|--7-------------------------------7----------------------------------|

Guitar 2
e|---------------------------------------------------------------------|
B|---------------------------------------------------------------------|
G|---------------------------------------------------------------------|
D|---------------------------------------------------------------------|
A|-9-----------9--------------------9-----------9----------------------|
E|-7-----------7--------------------7-----------7----------------------|
      You're in the darkness And you'll never see the light    You can't
    


Guitar 1 
e|---------------------------------------------------------------------|
B|---------------------------------------------------------------------|
G|----------------7----------------------------------------------------|
D|------9---7-9-----------------7---------9---7-9---9--------------7---|
A|--------------------7--7--9----------------------------7--7--9-------|
E|--7-------------------------------7----------------------------------|

Guitar 2
e|---------------------------------------------------------------------|
B|---------------------------------------------------------------------|
G|---------------------------------------------------------------------|
D|--9-----------9-------------------11----------11---------------------|
A|--7-----------7-------------------8-----------8----------------------|
E|---------------------------------------------------------------------|
   sleep           You're in too deep                       In your



Guitar 1 
e|---------------------------------------------------------------------|
B|---------------------------------------------------------------------|
G|----------------7--------------------------------7b-7b-7b-7b-7rp5----|
D|------9---7-9-----------------7---------9---7-9-------------------7--|
A|--------------------7--7--9------------------------------------------|
E|--7-------------------------------7----------------------------------|

Guitar 2
e|---------------------------------------------------------------------|
B|---------------------------------------------------------------------|
G|---------------------------------------------------------------------|
D|---------------------------------------------------------------------|
A|-9-----------9--------------------9-----------9----------------------|
E|-7-----------7--------------------7-----------7----------------------|
   underworld


Verse 2 0:30 (Guitar 3 comes in)
Guitar 1 
e|---------------------------------------------------------------------|
B|---------------------------------------------------------------------|
G|----------------7-----------------------------------7----------------|
D|------9---7-9-----------------7---------9---7-9-----------------7----|
A|--------------------7--7--9----------------------------7--7--9-------|
E|--7-------------------------------7----------------------------------|

Guitar 2
e|---------------------------------------------------------------------|
B|---------------------------------------------------------------------|
G|---------------------------------------------------------------------|
D|---------------------------------------------------------------------|
A|-9-----------9--------------------9-----------9----------------------|
E|-7-----------7--------------------7-----------7----------------------|

Guitar 3
e|-7--------------------------------7----------------------------------|
B|-7--------------------------------7----------------------------------|
G|---------------------------------------------------------------------|
D|---------------------------------------------------------------------|
A|---------------------------------------------------------------------|
E|---------------------------------------------------------------------|
        Stepping out messing up that's your game              



Guitar 1 
e|---------------------------------------------------------------------|
B|---------------------------------------------------------------------|
G|----------------7-----------------------------------7----------------|
D|------9---7-9-----------------7---------9---7-9-----------------7----|
A|--------------------7--7--9----------------------------7--7--9-------|
E|--7-------------------------------7----------------------------------|

Guitar 2
e|---------------------------------------------------------------------|
B|---------------------------------------------------------------------|
G|---------------------------------------------------------------------|
D|---------------------------------------------------------------------|
A|-9-----------9--------------------9-----------9----------------------|
E|-7-----------7--------------------7-----------7----------------------|

Guitar 3
e|-7--------------------------------7----------------------------------|
B|-7--------------------------------7----------------------------------|
G|---------------------------------------------------------------------|
D|---------------------------------------------------------------------|
A|---------------------------------------------------------------------|
E|---------------------------------------------------------------------|
       You play with fire But you can't put out the flame     It's your 



Guitar 1 
e|---------------------------------------------------------------------|
B|---------------------------------------------------------------------|
G|----------------7----------------------------------------------------|
D|------9---7-9-----------------7---------9---7-9---9--------------7---|
A|--------------------7--7--9----------------------------7--7--9-------|
E|--7-------------------------------7----------------------------------|

Guitar 2
e|---------------------------------------------------------------------|
B|---------------------------------------------------------------------|
G|---------------------------------------------------------------------|
D|--9-----------9-------------------11----------11---------------------|
A|--7-----------7-------------------8-----------8----------------------|
E|---------------------------------------------------------------------|

Guitar 3
e|12-12-12-12-12-12-12-12-12-12-12-13-13-13-13-13-13-13-13-13-13-13-13-|
B|---------------------------------------------------------------------|
G|---------------------------------------------------------------------|
D|---------------------------------------------------------------------|
A|---------------------------------------------------------------------|
E|---------------------------------------------------------------------|
  turn                   to get burned                         In your 



Guitar 1 
e|---------------------------------------------------------------------|
B|---------------------------------------------------------------------|
G|----------------7--------------------------------7b-7b-7b-7b-7rp5----|
D|------9---7-9-----------------7---------9---7-9-------------------7--|
A|--------------------7--7--9------------------------------------------|
E|--7-------------------------------7----------------------------------|

Guitar 2
e|---------------------------------------------------------------------|
B|---------------------------------------------------------------------|
G|---------------------------------------------------------------------|
D|---------------------------------------------------------------------|
A|-9-----------9--------------------9-----------9----------------------|
E|-7-----------7--------------------7-----------7----------------------|

Guitar 3
e|-14----------7-------------------------------------------------------|
B|---------------------------------------------------------------------|
G|---------------------------------------------------------------------|
D|---------------------------------------------------------------------|
A|---------------------------------------------------------------------|
E|---------------------------------------------------------------------|
  underworld                                                     I will


Chorus 0:51
Guitar 1
e|-7-7-7-7-7-7-7-7-7-7-7-7-7-7-7-7-7-7-7-7-7-7-7-7-7-7-7-7-7-7-7-7-7-7-|
B|-7-7-7-7-7-7-7-7-7-7-7-7-7-7-7-7-7-7-7-7-7-7-7-7-7-7-7-7-7-7-7-7-7-7-|
G|---------------------------------------------------------------------|
D|---------------------------------------------------------------------|
A|---------------------------------------------------------------------|
E|---------------------------------------------------------------------|

Guitar 2
e|---------------------------------------------------------------------|
B|---------------------------------------------------------------------|
G|---------------------------------------------------------------------|
D|---------------------------------------------------------------------|
A|-9-----------9--------------------9-----------9----------------------|
E|-7-----------7------0--2--4--5----7-----------7----------------------|
   bury you                 in your underworld                 I will



Guitar 1
e|-7-7-7-7-7-7-7-7-7-7-7-7-7-7-7-7-7-7-7-7-7-7-7-7-7-7-7-7-7-7-7-7-7-7-|
B|-7-7-7-7-7-7-7-7-7-7-7-7-7-7-7-7-7-7-7-7-7-7-7-7-7-7-7-7-7-7-7-7-7-7-|
G|---------------------------------------------------------------------|
D|---------------------------------------------------------------------|
A|---------------------------------------------------------------------|
E|---------------------------------------------------------------------|

Guitar 2
e|---------------------------------------------------------------------|
B|---------------------------------------------------------------------|
G|---------------------------------------------------------------------|
D|---------------------------------------------------------------------|
A|-9-----------9--------------------9-----------9----------------------|
E|-7-----------7------0--2--4--5----7-----------7----------------------|
   bury you                 in your underworld                  I will



Guitar 1
e|12-12-12-12-12-12-12-12-12-12-12-------------------------------------|
B|---------------------------------14-14-14-14-14-14-14-14-14---10--9--|
G|---------------------------------------------------------------------|
D|---------------------------------------------------------------------|
A|---------------------------------------------------------------------|
E|---------------------------------------------------------------------|

Guitar 2
e|---------------------------------------------------------------------|
B|---------------------------------------------------------------------|
G|---------------------------------------------------------------------|
D|--9-----------9-------------------11----------11---------------------|
A|--7-----------7-------------------8-----------8----------------------|
E|---------------------------------------------------------------------|
  bury you                    You                              In your



Guitar 1
e|-7-7-7-7-7-7-7-7-7-7-7-7-7-7-7-7-7-7-7-7-7-7-7-7-7-7-7-7-7-7-7-7-7-7-|
B|-7-7-7-7-7-7-7-7-7-7-7-7-7-7-7-7-7-7-7-7-7-7-7-7-7-7-7-7-7-7-7-7-7-7-|
G|---------------------------------------------------------------------|
D|---------------------------------------------------------------------|
A|---------------------------------------------------------------------|
E|---------------------------------------------------------------------|

Guitar 2
e|---------------------------------------------------------------------|
B|---------------------------------------------------------------------|
G|---------------------------------------------------------------------|
D|---------------------------------------------------------------------|
A|-9-----------9--------------------9-----------9----------------------|
E|-7-----------7------0--2--4--5----7-----------7----------------------|
   underworld                                               There's no


Verse 3 1:12
Guitar 1 
e|---------------------------------------------------------------------|
B|---------------------------------------------------------------------|
G|----------------7----------------------------------7-----------------|
D|------9---7-9-----------------7---------9---7-9-----------------7----|
A|--------------------7--7--9----------------------------7--7--9-------|
E|--7-------------------------------7----------------------------------|

Guitar 2
e|---------------------------------------------------------------------|
B|---------------------------------------------------------------------|
G|---------------------------------------------------------------------|
D|---------------------------------------------------------------------|
A|-9-----------9--------------------9-----------9----------------------|
E|-7-----------7--------------------7-----------7----------------------|
   church for you                No sanctuary               There's no



Guitar 1 
e|---------------------------------------------------------------------|
B|---------------------------------------------------------------------|
G|----------------7----------------------------------7-----------------|
D|------9---7-9-----------------7---------9---7-9-----------------7----|
A|--------------------7--7--9----------------------------7--7--9-------|
E|--7-------------------------------7----------------------------------|

Guitar 2
e|---------------------------------------------------------------------|
B|---------------------------------------------------------------------|
G|---------------------------------------------------------------------|
D|---------------------------------------------------------------------|
A|-9-----------9--------------------9-----------9----------------------|
E|-7-----------7--------------------7-----------7----------------------|
   place to hide               you can't get away from me      You can't 



Guitar 1 
e|---------------------------------------------------------------------|
B|---------------------------------------------------------------------|
G|----------------7----------------------------------------------------|
D|------9---7-9-----------------7---------9---7-9---9--------------7---|
A|--------------------7--7--9----------------------------7--7--9-------|
E|--7-------------------------------7----------------------------------|

Guitar 2
e|---------------------------------------------------------------------|
B|---------------------------------------------------------------------|
G|---------------------------------------------------------------------|
D|--9-----------9-------------------11----------11---------------------|
A|--7-----------7-------------------8-----------8----------------------|
E|---------------------------------------------------------------------|
    run           to a place in the sun                        In your


Guitar 1
e|---------------------------------------------------------------------|
B|---------------------------------------------------------------------|
G|----------------7----------------------------------7-----------------|
D|------9---7-9-----------------7---------9---7-9-----------------7----|
A|--------------------7--7--9----------------------------7--7--9-------|
E|--7-------------------------------7----------------------------------|

Guitar 2
e|---------------------------------------------------------------------|
B|---------------------------------------------------------------------|
G|---------------------------------------------------------------------|
D|---------------------------------------------------------------------|
A|-9-----------9--------------------9-----------9----------------------|
E|-7-----------7--------------------7-----------7----------------------|
  underworld                                                     I will


Chorus 1:32
Guitar 1
e|-7-7-7-7-7-7-7-7-7-7-7-7-7-7-7-7-7-7-7-7-7-7-7-7-7-7-7-7-7-7-7-7-7-7-|
B|-7-7-7-7-7-7-7-7-7-7-7-7-7-7-7-7-7-7-7-7-7-7-7-7-7-7-7-7-7-7-7-7-7-7-|
G|---------------------------------------------------------------------|
D|---------------------------------------------------------------------|
A|---------------------------------------------------------------------|
E|---------------------------------------------------------------------|

Guitar 2
e|---------------------------------------------------------------------|
B|---------------------------------------------------------------------|
G|---------------------------------------------------------------------|
D|---------------------------------------------------------------------|
A|-9-----------9--------------------9-----------9----------------------|
E|-7-----------7------0--2--4--5----7-----------7----------------------|
   bury you                 in your underworld                 I will



Guitar 1
e|-7-7-7-7-7-7-7-7-7-7-7-7-7-7-7-7-7-7-7-7-7-7-7-7-7-7-7-7-7-7-7-7-7-7-|
B|-7-7-7-7-7-7-7-7-7-7-7-7-7-7-7-7-7-7-7-7-7-7-7-7-7-7-7-7-7-7-7-7-7-7-|
G|---------------------------------------------------------------------|
D|---------------------------------------------------------------------|
A|---------------------------------------------------------------------|
E|---------------------------------------------------------------------|

Guitar 2
e|---------------------------------------------------------------------|
B|---------------------------------------------------------------------|
G|---------------------------------------------------------------------|
D|---------------------------------------------------------------------|
A|-9-----------9--------------------9-----------9----------------------|
E|-7-----------7------0--2--4--5----7-----------7----------------------|
   bury you                 in your underworld                  I will



Guitar 1
e|12-12-12-12-12-12-12-12-12-12-12-------------------------------------|
B|---------------------------------14-14-14-14-14-14-14-14-14-14-14-14-|
G|---------------------------------------------------------------------|
D|---------------------------------------------------------------------|
A|---------------------------------------------------------------------|
E|---------------------------------------------------------------------|

Guitar 2
e|---------------------------------------------------------------------|
B|---------------------------------------------------------------------|
G|---------------------------------------------------------------------|
D|--9-----------9-------------------11----------11---------------------|
A|--7-----------7-------------------8-----------8----------------------|
E|---------------------------------------------------------------------|
  bury you                    You                              In your



Guitar 1
e|-7-7-7-7-7-7-7-7-7-7-7-7-7-7-7-7-7-7-7-7-7-7-7-7-7-7-7-7-7-7-7-7-7-7-|
B|-7-7-7-7-7-7-7-7-7-7-7-7-7-7-7-7-7-7-7-7-7-7-7-7-7-7-7-7-7-7-7-7-7-7-|
G|---------------------------------------------------------------------|
D|---------------------------------------------------------------------|
A|---------------------------------------------------------------------|
E|---------------------------------------------------------------------|

Guitar 2
e|---------------------------------------------------------------------|
B|---------------------------------------------------------------------|
G|---------------------------------------------------------------------|
D|---------------------------------------------------------------------|
A|-9-----------9--------------------9-----------9----------------------|
E|-7-----------7------0--2--4--5----7-----------7----------------------|
   underworld                                               


Bridge 1:54

e|---------------------------------------------------------------------|
B|---------------------------------------------------------------------|
G|---------------------------------------------------------------------|
D|---------------------------------------------------------------------|
A|-9---------------------------------2---------------------------------|
E|-7-------9----7----5-----2----0----0-------9----7----5-----2----0----|
                                                             You can't  



e|---------------------------------------------------------------------|
B|---------------------------------------------------------------------|
G|-7-----------------------------------9-------------------------------|
D|-7-----------------7-----------------9-----------------9-------------|
A|-5-----------------7-----------------7-----------------9-------------|
E|-------------------5-----------------------------------7-------------|
 run       you can't run     you can't run     you can't run  





e|---------------------------------------------------------------------|
B|---------------------------------------------------------------------|
G|---------------------------------------------------------------------|
D|---------------------------------------------------------------------|
A|-9---------------------------------2---------------------------------|
E|-7-------9----7----5-----2----0----0-------9----7----5-----2----0----|
                                                             You'll get  


e|---------------------------------------------------------------------|
B|---------------------------------------------------------------------|
G|-7-----------------------------------9-------------------------------|
D|-7-----------------7-----------------9-----------------9-------------|
A|-5-----------------7-----------------7-----------------9-------------|
E|-------------------5-----------------------------------7-------------|
  done    you'll get done   you'll get done   you'll get done 


Solo 2:17
This is the riff that goes under the solo
e|---------------------------------------|
B|---------------------------------------|
G|---------------------------------------| X7
D|------9---------8---------7---------9--|
A|---------------------------------------|
E|-7---------6---------5---------7-------|



Then this riff again
e|---------------------------------------|
B|---------------------------------------|
G|----------------7----------------------|X4
D|------9---7-9-----------------7--------|
A|--------------------7--7--9------------|
E|--7-------------------------------7----|
                                   I will(last time)


Guitar 1
e|---------------------------------------------------------------------|
B|---------------------------------------------------------------------|
G|----------------7----------------------------------------------------|
D|------9---7-9-----------------7---------9---7-9---9--------------7---|
A|--------------------7--7--9----------------------------7--7--9-------|
E|--7-------------------------------7----------------------------------|

Guitar 2
e|---------------------------------------------------------------------|
B|---------------------------------------------------------------------|
G|---------------------------------------------------------------------|
D|--9-----------9-------------------11----------11---------------------|
A|--7-----------7-------------------8-----------8----------------------|
E|---------------------------------------------------------------------|
   bury you             yes I will                             In your



Guitar 1 
e|---------------------------------------------------------------------|
B|---------------------------------------------------------------------|
G|----------------7--------------------------------7b-7b-7b-7b-7rp5----|
D|------9---7-9-----------------7---------9---7-9-------------------7--|
A|--------------------7--7--9------------------------------------------|
E|--7-------------------------------7----------------------------------|

Guitar 2
e|---------------------------------------------------------------------|
B|---------------------------------------------------------------------|
G|---------------------------------------------------------------------|
D|---------------------------------------------------------------------|
A|-9-----------9--------------------9-----------9----------------------|
E|-7-----------7--------------------7-----------7----------------------|
  underworld




Verse 4 2:56
Guitar 1 
e|---------------------------------------------------------------------|
B|---------------------------------------------------------------------|
G|----------------7----------------------------------7-----------------|
D|------9---7-9-----------------7---------9---7-9-----------------7----|
A|--------------------7--7--9----------------------------7--7--9-------|
E|--7-------------------------------7----------------------------------|

Guitar 2
e|---------------------------------------------------------------------|
B|---------------------------------------------------------------------|
G|---------------------------------------------------------------------|
D|---------------------------------------------------------------------|
A|-9-----------9--------------------9-----------9----------------------|
E|-7-----------7--------------------7-----------7----------------------|
   
Guitar 3
e|-7--------------------------------7----------------------------------|
B|-7--------------------------------7----------------------------------|
G|---------------------------------------------------------------------|
D|---------------------------------------------------------------------|
A|---------------------------------------------------------------------|
E|---------------------------------------------------------------------| 
  Your time is running out            that's for sure
   


Guitar 1 
e|---------------------------------------------------------------------|
B|---------------------------------------------------------------------|
G|----------------7-----------------------------------7----------------|
D|------9---7-9-----------------7---------9---7-9-----------------7----|
A|--------------------7--7--9----------------------------7--7--9-------|
E|--7-------------------------------7----------------------------------|

Guitar 2
e|---------------------------------------------------------------------|
B|---------------------------------------------------------------------|
G|---------------------------------------------------------------------|
D|---------------------------------------------------------------------|
A|-9-----------9--------------------9-----------9----------------------|
E|-7-----------7--------------------7-----------7----------------------|

Guitar 3
e|-7--------------------------------7----------------------------------|
B|-7--------------------------------7----------------------------------|
G|---------------------------------------------------------------------|
D|---------------------------------------------------------------------|
A|---------------------------------------------------------------------|
E|---------------------------------------------------------------------|
  they're gonna track you down cause you back's to the wall   you can't
   
    

Guitar 1 
e|---------------------------------------------------------------------|
B|---------------------------------------------------------------------|
G|----------------7----------------------------------------------------|
D|------9---7-9-----------------7---------9---7-9---9--------------7---|
A|--------------------7--7--9----------------------------7--7--9-------|
E|--7-------------------------------7----------------------------------|

Guitar 2
e|---------------------------------------------------------------------|
B|---------------------------------------------------------------------|
G|---------------------------------------------------------------------|
D|--9-----------9-------------------11----------11---------------------|
A|--7-----------7-------------------8-----------8----------------------|
E|---------------------------------------------------------------------|

Guitar 3
e|12-12-12-12-12-12-12-12-12-12-12-13-13-13-13-13-13-13-13-13-13-13-13-|
B|---------------------------------------------------------------------|
G|---------------------------------------------------------------------|
D|---------------------------------------------------------------------|
A|---------------------------------------------------------------------|
E|---------------------------------------------------------------------|
  run                 you'll get done                           in your
   


Guitar 1 
e|---------------------------------------------------------------------|
B|---------------------------------------------------------------------|
G|----------------7-----------------------------------7----------------|
D|------9---7-9-----------------7---------9---7-9-----------------7----|
A|--------------------7--7--9----------------------------7--7--9-------|
E|--7-------------------------------7----------------------------------|

Guitar 2
e|---------------------------------------------------------------------|
B|---------------------------------------------------------------------|
G|---------------------------------------------------------------------|
D|---------------------------------------------------------------------|
A|-9-----------9--------------------9-----------9----------------------|
E|-7-----------7--------------------7-----------7----------------------|
   
Guitar 3
e|-14----------7--------------------7----------------------------------|
B|----------------------------------7----------------------------------|
G|---------------------------------------------------------------------|
D|---------------------------------------------------------------------|
A|---------------------------------------------------------------------|
E|---------------------------------------------------------------------|
  underworld 




Chorus 3:17
Guitar 1
e|-7-7-7-7-7-7-7-7-7-7-7-7-7-7-7-7-7-7-7-7-7-7-7-7-7-7-7-7-7-7-7-7-7-7-|
B|-7-7-7-7-7-7-7-7-7-7-7-7-7-7-7-7-7-7-7-7-7-7-7-7-7-7-7-7-7-7-7-7-7-7-|
G|---------------------------------------------------------------------|
D|---------------------------------------------------------------------|
A|---------------------------------------------------------------------|
E|---------------------------------------------------------------------|

Guitar 2
e|---------------------------------------------------------------------|
B|---------------------------------------------------------------------|
G|---------------------------------------------------------------------|
D|---------------------------------------------------------------------|
A|-9-----------9--------------------9-----------9----------------------|
E|-7-----------7------0--2--4--5----7-----------7----------------------|
   bury you                 in your underworld                 I will



Guitar 1
e|-7-7-7-7-7-7-7-7-7-7-7-7-7-7-7-7-7-7-7-7-7-7-7-7-7-7-7-7-7-7-7-7-7-7-|
B|-7-7-7-7-7-7-7-7-7-7-7-7-7-7-7-7-7-7-7-7-7-7-7-7-7-7-7-7-7-7-7-7-7-7-|
G|---------------------------------------------------------------------|
D|---------------------------------------------------------------------|
A|---------------------------------------------------------------------|
E|---------------------------------------------------------------------|

Guitar 2
e|---------------------------------------------------------------------|
B|---------------------------------------------------------------------|
G|---------------------------------------------------------------------|
D|---------------------------------------------------------------------|
A|-9-----------9--------------------9-----------9----------------------|
E|-7-----------7------0--2--4--5----7-----------7----------------------|
   bury you                 in your underworld                  I will



Guitar 1
e|12-12-12-12-12-12-12-12-12-12-12-------------------------------------|
B|---------------------------------14-14-14-14-14-14-14-14-14---10--9--|
G|---------------------------------------------------------------------|
D|---------------------------------------------------------------------|
A|---------------------------------------------------------------------|
E|---------------------------------------------------------------------|

Guitar 2
e|---------------------------------------------------------------------|
B|---------------------------------------------------------------------|
G|---------------------------------------------------------------------|
D|--9-----------9-------------------11----------11---------------------|
A|--7-----------7-------------------8-----------8----------------------|
E|---------------------------------------------------------------------|
  bury you                    You                              In your



Guitar 1
e|-7-7-7-7-7-7-7-7-7-7-7-7-7-7-7-7-7-7-7-7-7-7-7-7-7-7-7-7-7-7-7-7-7-7-|
B|-7-7-7-7-7-7-7-7-7-7-7-7-7-7-7-7-7-7-7-7-7-7-7-7-7-7-7-7-7-7-7-7-7-7-|
G|---------------------------------------------------------------------|
D|---------------------------------------------------------------------|
A|---------------------------------------------------------------------|
E|---------------------------------------------------------------------|

Guitar 2
e|---------------------------------------------------------------------|
B|---------------------------------------------------------------------|
G|---------------------------------------------------------------------|
D|---------------------------------------------------------------------|
A|-9-----------9--------------------9-----------9----------------------|
E|-7-----------7------0--2--4--5----7-----------7----------------------|
   underworld                                               


Ending 3:38

e|---------------------------------------------------------------------|
B|---------------------------------------------------------------------|
G|---------------------------------------------------------------------| 
D|-----9--------8--------7--------9--------9--------8--------7--------9|
A|---------------------------------------------------------------------|
E|-7--------6--------5--------7--------7--------6--------5--------7----|




e|---------------------------------------------------------------------|
B|---------------------------------------------------------------------|
G|---------------------------------------------------------------------| 
D|-----9--------8--------7--------9------------------------------------|
A|--------------------------------------------9--9--9--9---------------|
E|-7--------6--------5--------7---------------7--7--7--7---------------|






Lyrics

Verse 1
You think you're winning but you'll lose the fight
You're in the darkness And you'll never see the light
You can't sleep You're in too deep In your underworld 

Verse 2
Stepping out messing up that's your game
You play with fire But you can't put out the flame
It's your turn to get burned In your underworld 

Chorus
I will bury you In your underworld
I will bury you In your underworld 

Verse 3
There's no church for you No sanctuary
there's no place to hide You can't get away from me
You can't run to a place in the sun
In your underworld

Chorus
I will bury you In your underworld
I will bury you In your underworld 

Bridge
You can't run, You can't run, You can't run
You'll get done, You'll get done, You'll get done 

I will bury you, I will bury you
In your underworld
 
Verse 4
Your time is running out That's for sure
they're gonna track you down cause you back's to the wall
You can't run You'll get done In your underworld

Chorus
I will bury you In your underworld
I will bury you In your underworld 





Comments


Popular Divinyls tabs & chords
Boys In Town Bass Tabs
Boys In Town Chords
I Touch Myself Chords
Im Jealous Chords
Science Fiction Chords
I Touch Myself Tabs
I Touch Myself 1 Tabs
Boys In Town Ukulele
I Touch Myself Ukulele
Im Jealous Ukulele


Song lyrics



↑ Back to top | Tablatures and chords are parodies/interpretations of the original songs. You may use it for private study, scholarship, research or language learning purposes only
© 2014 AZChords.com Contact us | Privacy policy | DMCA | Add/correct tabs | Request tabs | Top 50 tabs