>
 >
Spaghetti Del Rock

Spaghetti Del Rock Guitar Tabs

Divididos - Spaghetti Del Rock chords, tabs, tablatures, lyrics

Guitar lessons | Add/correct | Request | Top 50 tabs Artists:  A B C D E F G H I J K L M N O P Q R S T U V W X Y Z 0-9

Spaghetti Del Rock Guitar Tabs – Divididos

CD, Sheet music, Poster

Do you like Spaghetti Del Rock? Share with your friends now
Tabs
  E     A     B    C#m    F#    C     G#
e-|--7--|--5--|--7--|--4--|--2--|--8--|--4---|
B-|--9--|--5--|--7--|--5--|--2--|--8--|--4---|
G-|--9--|--6--|--8--|--6--|--3--|--9--|--5---|
D-|--9--|--7--|--9--|--6--|--4--|--10-|--6---|
A-|--7--|--7--|--9--|--4--|--4--|--10-|--6---|
E-|--x--|--5--|--7--|--x--|--2--|--8--|--4---|

intro:
e-|---------------------|
B-|---------------------|
G-|-9----9--------------|
D-|-9h11-9--------------|
A-|--------11-7-9---7---|
E-|---------------------|


mientras canta:


((((riff 1))))



       E        E        E        E
e-|--------------------------------------|
B-|----9--------9--------9--------9------|
G-|----9--------9--------9--------9------|
D-|----9--------9--------9--------9------|
A-|-7-----7-6-------6--------------------|
E-|-------------------9------9-7---------|
    Pistones de        un curioso motor



((((riff 2))))



               A                        B
e-|------------------------|------------------------|
B-|------------------------|------------------------|
G-|-----------6h7p6--------|-----------8h9p8--------|
D-|--------7---------7-----|--------9--------9------|
A-|-----7--------------7---|------9------------9----|
E-|--5---------------------|---7--------------------|
                     de humanidad


       E        E        E        E
e-|--------------------------------------|
B-|----9--------9--------9--------9------|
G-|----9--------9--------9--------9------|
D-|----9--------9--------9--------9------|
A-|-7-----7-6-------6--------------------|
E-|-------------------9------9-7---------|
      resortes viejos     de este


               A                        B
e-|------------------------|------------------------|
B-|------------------------|------------------------|
G-|-----------6h7p6--------|-----------8h9p8--------|
D-|--------7---------7-----|--------9--------9------|
A-|-----7--------------7---|------9------------9----|
E-|--5---------------------|---7--------------------|
                    amor que va

       E        E        E        E
e-|--------------------------------------|
B-|----9--------9--------9--------9------|
G-|----9--------9--------9--------9------|
D-|----9--------9--------9--------9------|
A-|-7-----7-6-------6--------------------|
E-|-------------------9------9-7---------|
     memoria hostil de un tiempo de paz


               A                        B
e-|------------------------|------------------------|
B-|------------------------|------------------------|
G-|-----------6h7p6--------|-----------8h9p8--------|
D-|--------7---------7-----|--------9--------9------|
A-|-----7--------------7---|------9------------9----|
E-|--5---------------------|---7--------------------|
                    sin paz


       E        E        E        E
e-|--------------------------------------|
B-|----9--------9--------9--------9------|
G-|----9--------9--------9--------9------|
D-|----9--------9--------9--------9------|
A-|-7-----7-6-------6--------------------|
E-|-------------------9------9-7---------|
      narices frías de una noche


               A                        B
e-|------------------------|------------------------|
B-|------------------------|------------------------|
G-|-----------6h7p6--------|-----------8h9p8--------|
D-|--------7---------7-----|--------9--------9------|
A-|-----7--------------7---|------9------------9----|
E-|--5---------------------|---7--------------------|
                atrás





A          B (G)-|--8h9p8--
Besos por celular,
A          B (G)-|--8h9p8--
las momias de este amor
A           B             E
piden el actor de lo que fui

e-|-----------------------|
B-|-----------------------|
G-|-----------------------|
D-|-----------------------|
A-|--11---9--11--9--7-----|
E-|-----------------------|

e-|-----------------------|
B-|-----------------------|
G-|-----------------------|
D-|-----------------------|
A-|--------7--7h9---------|
E-|---7h9-----------------|


(riff 1 y 2 )


Panrtalla de la muerte y de la canción
proyecto de un nuevo spaghetti del rock



A        B           A      B
Ciclope de cristal, devora ambición
A        B          E
vomita modelos de ficción




A-|--7---9   C#m     F#            A----------------|               C   B
----Re- mon- tar------------------------------------|     el barrilete en esta tempestad

     C#m    F#
sólo hará entender
A              G#
que ayer no es hoy
A          G#
que hoy es hoy,
A            B             E
que no soy actor de lo que fui
e-|-----------------------|
B-|-----------------------|
G-|-----------------------|
D-|-----------------------|
A-|--11---9--11--9--7-----|
E-|-----------------------|






solo:

-|--------------|---------------|-----------------------|
-|--------------|---------------|-12b14-14-14--14b16-12-|
-|--------------|-9-11-11b13-9--|-----------------------|
-|------------9-|---------------|-----------------------|
-|-----7-9h11---|---------------|-----------------------|
-|-7h9----------|---------------|-----------------------|


-----9-------|--9-11-----------|-----------------------|
12/9---12-9--|-------12-9------|-----------------------|
-------------|------------11-9-|-----------------------|
-------------|-----------------|-11p9-----------9----9-|
-------------|-----------------|------11-7-9/11---11---|
-------------|-----------------|-----------------------|


----------------------------------------|
14h12-----------------------------------|
------13--------------------------------|
---------14----------------------9----9-|
----------------------------9/11---11---|
------------12h14---7-7h9---------------|



A         B
Besos por celular,
A          B
las momias de este amor
A           B             E
piden el actor de lo que fui

e-|-----------------------|
B-|-----------------------|
G-|-----------------------|
D-|-----------------------|
A-|--11---9--11--9--7-----|
E-|-----------------------|




A-|--7---9   C#m     F#            A----------------|               C   B
----Re- mon- tar------------------------------------|     el barrilete en esta tempestad

      C#m   F#
sólo hará entender
A              G#
que ayer no es hoy
A          G#
que hoy es hoy,
A            B             E
que no soy actor de lo que fui


e-|--------------------------|
B-|--------------------------|
G-|--------------------------|
D-|--------------------------|
A-|--11...---9--11--9--7-----|
E-|--------------------------|





Comments


Popular Divididos tabs & chords
Amor Japones Bass Tabs
Azulejo Bass Tabs
Basta Fuerte 1 Bass Tabs
Capo Capon 1 Bass Tabs
El 3 Bass Tabs
El 38 1 Bass Tabs
Sisters Chords
15-5 Tabs
Capo Capon Ukulele
Par Mil Ukulele


Song lyrics



↑ Back to top | Tablatures and chords are parodies/interpretations of the original songs. You may use it for private study, scholarship, research or language learning purposes only
© 2014 AZChords.com Contact us | Privacy policy | DMCA | Add/correct tabs | Request tabs | Top 50 tabs